Song name
# A B C D E F G H I J K L M N O P Q R S T U V W X Y Z

The Lillingtons - For The Fun Of It tab

For the Fun of It by The Lillingtons from the box set "Technically Unsound"

Intro
e-----------------------------|
B-----------------------------|
G---------------555555--------|
D-333333-555555-555555-555555-|
A-333333-555555-333333-555555-|
E-111111-333333--------333333-|

Solo
e-
B----6-6-5-8-8-6-6-5-|
G-5-5------5-5-------|
D--------------------|
A--------------------|
E--------------------|

Chorus
e----------------------------|
B----------------------------|
G-555555---------------------|
D-555555-555555-777777-33-55-|
A-333333-555555-777777-33-55-|
E--------333333-555555-11-55-|

This is when you hear the people yelling at the end
e---------------------|
B---------------------|
G-5~-------5~-------5-|
D-5~-------5~-------5-|
A-3~-------3~-------3-|
E---------------------|

Intro  2x
solo   4x
intro  8x
Chorus 4x
solo   4x
Intro  8x
chorus 4x
Ending 1x

Lyrics:
Were going to a drive-in show
Gonna get some burgers and some fries
Gonna have my best friends by my side
Were gonna pick us a fight

My leather jacket worn and rough
Gonna grab my bad ass switchblade knife
Were gonna fuck shit up
Were gonna fuck em up tonight

We don't care whats on
We just go for the fun of it
We don't care whats on
We just go for the fun of it
We don't care whats on
We just go for the fun of it
We don't care whats on
We just go for the fun of it yeah
Tap to rate this tab
# A B C D E F G H I J K L M N O P Q R S T U V W X Y Z