Song name
# A B C D E F G H I J K L M N O P Q R S T U V W X Y Z

The Lillingtons - Wrapped Around Her Little Finger tab

Wrapped around her little finger by The Lillingtons off their box set "Technically Unsound"

Intro
e-------------------------------------|
B-------------------------------------|
G-7-77-7777-7-77-7777-----------------|
D-7-77-7777-7-77-7777-9-99999-5-55555-|
A-5-55-5555-5-55-5555-9-99999-5-55555-|
E---------------------7-77777-3-33333-|

Solo thing
e---------------------------------|
B---------------------------------|
G---------------------------------|
D-4-44-444-5-5-4-4-5-7-777-5-4----|
A------------------------------5~-|
E---------------------------------|

Chorus
e---------------------------------|
B---------------------------------|
G-7-77777-------------------------|
D-7-77777-7-77777-5-55555-7-77777-|
A-5-55555-7-77777-5-55555-7-77777-|
E---------5-55555-3-33333-5-55555-|

Intro  2x
solo   2x
intro  8x
chorus 4x
solo   4x
intro  8x
chorus 4x
solo   4x
end
Tap to rate this tab
# A B C D E F G H I J K L M N O P Q R S T U V W X Y Z