Song name
# A B C D E F G H I J K L M N O P Q R S T U V W X Y Z

The Lillingtons - Stay Tuned tab

This is the last song off The Lillingtons album "The Too Late Show" awesome song REALLY 
easy song to play just like the rest of their songs.

Beginning
The only solo played in the song
e--------------------------------------------|
B-----6-5-8~------6-5--------6-5-8~-----5----|
G-5-7---------5-7-----7~-5-7--------5-7---5~-|
D--------------------------------------------|
A--------------------------------------------|
E--------------------------------------------|

In the beginning with the solo play it twice
e---------------------------------|
B---------------------------------|
G-5-------------------------------|
D-5-(x14)-5-------7-------3-------|
A-3-------5-(x14)-7-(x14)-3-(x14)-|
E---------3-------5-------1-------|

Then when the singing comes in, play it twice
e-----------------------------------------------------|
B-----------------------------------------------------|
G-5-----------------------5---------------------------|
D-5-(x14)-5------3--------5-(x8)-5------7------3------|
A-3-------5-(x8)-3(x8)----3------5-(x8)-7-(x8)-3-(x8)-|
E---------3------1---------------3------5------1------|

Chorus, last chord repeat until he goes back into the solo
then repeat it all over again
e------------------------------------------------|
B------------------------------------------------|
G--------------5---------------------------5-----|
D-3------5-----5-(x8)-7------3------5------5-----|
A-3-(x8)-5(x8)-3------7-(x8)-3-(x8)-5-(x8)-3-----|
E-1------3------------5------1------3------------|

The 2nd time the chorus comes there's a little variation to it,
then the last chord you play it till the song ends
e---------------------------------------------------------------------------|
B---------------------------------------------------------------------------|
G--------------5---------------------------5--------------------------5-----|
D-3------5-----5-(x8)-7------3------5------5-(x8)-7--5--3------5------5-----|
A-3-(x8)-5(x8)-3------7-(x8)-3-(x8)-5-(x8)-3------7--5--3-(x8)-5-(x8)-3-----|
E-1------3------------5------1------3-------------5--3--1------3------------|
Tap to rate this tab
# A B C D E F G H I J K L M N O P Q R S T U V W X Y Z