Song name
# A B C D E F G H I J K L M N O P Q R S T U V W X Y Z

The Lillingtons - Lillington High tab

-------------------------------------------------------------------------------
                         Lillington High - The Lillingtons
-------------------------------------------------------------------------------
Tabbed by: squintyjoefan
E-mail: squintyjoefan@hotmail.co.uk

Track 1 from the album 'Shit Out of Luck'

Tuning: EADGBe (Standard)

Verse (played throughout all of the song)

e|---------------------------------------------------------------------------|
B|---------------------------------------------------------------------------|
G|--5-555555-------------------------10--101010101010-----------------5------|
D|--5-555555--5-555555---7-7777777---10--101010101010-----------------5------|
A|--3-333333--5-555555---7-7777777---8---8-8-8-8-8-8------------------3------|
E|------------3-333333---5-5555555-------------------------------------------|
    C5        G5         A5          F5                        End song on C5

Riff (comes up during the chorus)

e|---------------------------------------------------------------------------|
B|---------------------------------------------------------------------------|
G|--5--7-5-4-----7-5-4-------9-7-5-------5-4-7--------5~---------------------|
D|------------5-----------7-----------3--------------------------------------|
A|---------------------------------------------------------------------------|
E|---------------------------------------------------------------------------|
                                                      End on this note
                                                     

************************************

| /   slide up
| \   slide down
| h   hammer-on
| p   pull-off
| ~   vibrato
| +   harmonic
| x   Mute note
| b   Bend
| pb  Pre-bend
| br  Bend release
| pbr Pre-bend release
| brb Bend release bend

************************************
Tap to rate this tab
# A B C D E F G H I J K L M N O P Q R S T U V W X Y Z