Song name
# A B C D E F G H I J K L M N O P Q R S T U V W X Y Z

The Lillingtons - Murder On My Mind tab

MURDER ON MY MIND - THE LILLINGTONS
Tabbed by Charles Mitch

This is my first tab ever, and what better band than The Lillingtons.
It may not be completely correct, but I think it's pretty close.  Enjoy...

Pre    | Intro - X 4
|------|--------------------------------------------------------------------|
|------|--------------------------------------------------------------------|
|------|--------------------------------------------------------------------|
|-9----|-------------------9------------------------------------------------|
|-7--9-|-11-11-11-11-11-11-7--9---------------------------------------------|
|----7-|-9--9--9--9--9--9-----7---------------------------------------------|

Verse - X 4
|---------------------------------------------------------------------------|
|---------------------------------------------------------------------------|
|---------------------------------------------------------------------------|
|--------------------------9--9--9--9---------------------------------------|
|-11-11-11-11-11-11-11-11--7--7--7--7--9--9--9--9---------------------------|
|-9--9--9--9--9--9--9--9---------------7--7--7--7---------------------------|

Chorus 1 - X 4
|---------------------------------------------------------------------------|
|---------------------------------------------------------------------------|
|---------------------------------------------------------------------------|
|-------------9--9--9--9--------------------9-------------------------------|
|-11-11-11-11-7--7--7--7--7--7--7--7--9--9--7--9----------------------------|
|-9--9--9--9--------------5--5--5--5--7--7-----7----------------------------|

Chorus 2 - X2
|---------------------------------------------------------------------------|
|---------------------------------------------------------------------------|
|---------------------------------------------------------------------------|
|-------------------9-----------------------9-------------------------------|
|-11-11-11-11-11-11-7--9--7--7--7--7--9--9--7--9----------------------------|
|-9--9--9--9--9--9-----7--5--5--5--5--7--7-----7----------------------------|

Verse - X 4

Chorus 1 - X4

Bridge (Let it ring out)
|---------------------------------------------------------------------------|
|---------------------------------------------------------------------------|
|---------------------------------------------------------------------------|
|---------------------------------------------------------------------------|
|-11------------------11------------------11--------------------------------|
|-9-------------------9-------------------9---------------------------------|

Solo 1? (I don't know wtf to call this...) - X2
|---------------------------------------------------------------------------|
|---------------------------------------------------------------------------|
|---------------------------------------------------------------------------|
|---------------------------------------------------------------------------|
|-------------------------7--7--7--7--7--7--7-------------------------------|
|-9--9--9--9--9--9--9--7-----------------------7----------------------------|

Solo 2? - X 4
|---------------------------------------------------------------------------|
|---------------------------------------------------------------------------|
|-13-13-13-13-13-13-13-13---------------------------------------------------|
|-11-11-11-11-11-11-11-11---------------------------------------------------|
|---------------------------------------------------------------------------|
|---------------------------------------------------------------------------|

Chorus 1 - X4

End (Let it ring out)
|---------------------------------------------------------------------------|
|---------------------------------------------------------------------------|
|---------------------------------------------------------------------------|
|---------------------------------------------------------------------------|
|-11------------------------------------------------------------------------|
|-9-------------------------------------------------------------------------|

LYRICS:

Starlight time the sun went down,
The moon is rising through the trees,
Throughout the dark the scene is set,
Trick or treat it's Halloween,

The kids all got their costumes on,
Well I've got mine on too,
Just escaped from the looney bin,
I'm coming after you,

Cause I-I-I-I-I-I-I got murder on my,
mi-i-i-i-i-ind got murder on my,
mi-i-i-i-i-ind got murder on my,
mi-i-i-i-i-ind got murder on my mind,

Take my time it makes it fun,
That's why I don't use a gun,
Gunny sack upon my head,
I won't stop until you're dead,
Tap to rate this tab
# A B C D E F G H I J K L M N O P Q R S T U V W X Y Z