Song name
# A B C D E F G H I J K L M N O P Q R S T U V W X Y Z

The Lillingtons - Phantom Maggot tab

PHANTOM MAGGOT - THE LILLINGTONS
Tabbed by Charles Mitch

 /  slide up



 Intro - X 4
|---------------------------------------------------------------------------|
|---------------------------------------------------------------------------|
|---------------------------------------------------------------------------|
|-4/5-5-5-5-5-5-5-----------------------------------------------------------|
|-2/3-3-3-3-3-3-3-----------------------------------------------------------|
|---------------------------------------------------------------------------|

Verse - X 4
|---------------------------------------------------------------------------|
|---------------------------------------------------------------------------|
|---------------------------------------------------------------------------|
|-5-5-5-5-5-5-5-5-----------------------------------------------------------|
|-3-3-3-3-3-3-3-3-5-5-5-5-3-3-3-3-------------------------------------------|
|-----------------3-3-3-3-1-1-1-1-------------------------------------------|

Chorus 1 - X 1
|---------------------------------------------------------------------------|
|---------------------------------------------------------------------------|
|---------------------------------------------------------------------------|
|-----------------5-5-5-5---------------------------------------------------|
|-7-7-7-7-3-3-3-3-3-3-3-3-5-5-5-5-7-7-7-7-3-3-3-3-5-5-5-5-5-5-5-5-----------|
|-5-5-5-5-1-1-1-1---------3-3-3-3-5-5-5-5-1-1-1-1-3-3-3-3-3-3-3-3-----------|

Intro - X 4

Verse - X 4

Chorus 1 - X 1

Chorus 2 - X4
|---------------------------------------------------------------------------|
|---------------------------------------------------------------------------|
|---------------------------------------------------------------------------|
|-5-5-5-5-------------------------------------------------------------------|
|-3-3-3-3-5-5-5-5-7-7-7-7-3-3-3-3-------------------------------------------|
|---------3-3-3-3-5-5-5-5-1-1-1-1-------------------------------------------|

End (Let it ring out)
|---------------------------------------------------------------------------|
|---------------------------------------------------------------------------|
|---------------------------------------------------------------------------|
|-5-------------------------------------------------------------------------|
|-3-------------------------------------------------------------------------|
|---------------------------------------------------------------------------|

LYRICS

Phantom maggot got his look straight out of a comic book,
Phantom maggot's right on time always fighting maggot crime,
He puts maggot villians in their place disappears without a trace,
Now there's nothing more to see Phantom maggot saved the day,

You always laugh when you walk by oh yeah,
Someday he'll be a phantom fly yeah,

Someday he'll be a phantom fly-y-y oh yeah,
Someday he'll be a phantom fly-y-y oh yeah,
Someday he'll be a phantom fly-y-y oh yeah,
Someday he'll be a phantom fly-y-y...

And he'll show all you maggots what he's really made of...
Tap to rate this tab
 
# A B C D E F G H I J K L M N O P Q R S T U V W X Y Z