Song name
# A B C D E F G H I J K L M N O P Q R S T U V W X Y Z

The Lipstik - Teruna Dan Dara tab

Assalamualaikum…

Band	: The Lipstik
Song	: Teruna dan Dara (EP version)
Album	: Retro Masa Kini
Tuning	: Standard

Few things to note:
1.	This is based on the EP Retro Masa Kini version, not the old version.
2.	Use barre chords to make it sound good. For the strumming patern, listen to the song.
3.	The Lipstik rocks!!

Intro
G Bm C D

(then, lead enters..)
   G                             Bm 
e|-----------------------------|-------------------------|
B|-----------------------------|-------------------------|
G|-----------------------------|-------------------------|
D|-----------------------------|-------------------------|
A|----------7-5~--7--5-3-2-0---|----5-7-5~--7--5-3-2-0-2-|
E|-15\-3~-3------------------3-|-2~----------------------|

   C                             D    
e|-----------------------------|----------------------------|
B|-----------------------------|----------------------------|
G|-----------------------------|----------------------------|
D|-----------------------------|---------------------5-7-5~-|
A|-3--2-0-2-3-2-0~--2-3-5-3-2--|-3-3-3/-5-5-5/-7-7-7--------|
E|-----------------------------|----------------------------|

   G                                          Bm 
e|--------12-12-10-10~-10/12-10-------------|--------12-10~-10/12-10-------------|
B|------------------------------13-12-10----|------------------------13-12-10-12-|
G|/12~-12--------------------------------12-|-11~--------------------------------|
D|------------------------------------------|------------------------------------|
A|------------------------------------------|------------------------------------|
E|------------------------------------------|------------------------------------|

   C                                         D    
e|--------------------------------10-------|-------------------------------------|
B|-13~-12-10-12-13-12-10~---12-13----13-12-|-13-13-13-12-12-12-10-10-10-8-8-7-7-8|
G|-----------------------------------------|-------------------------------------|
D|-----------------------------------------|-------------------------------------|
A|-----------------------------------------|-------------------------------------|
E|-----------------------------------------|-------------------------------------|


Verse
G                    Bm     
Bermula, satu cerita dulu kala,
              C               D
cerita tentang Si Teruna & Si Dara ..
G                              Bm
Hidup mereka,saling tak tumpah macam,
     C          D
Si Rumie & Si Julie..


Chorus
Am      D             G  G#
   bahagianya hidup mereka,       
Am             D          G
   macam P.Ramlee & Saloma..
 

Verse 2
G                         Bm
Oh manisnya, kucupan kali pertama,
           C             D
membuatkan Si Dara terpesona..
G                        Bm
Bertemasya, hidup mereka riang ria,
      C                    D
bagai dunia mereka yang punya..lala-lalalala..

Solo
   G                                 Bm
e|---------------------------------|----------------------10------------------|
B|---------------------------------|-------8-10-8--10b12-----12\10-10p8---8~--|
G|-----------------------------7---|-7~--9------------------------------9-----|
D|-----------5---5~-7p5--5-7-9---9-|------------------------------------------|
A|-------5-7---7-------7-----------|------------------------------------------|
E|-3-5-7---------------------------|------------------------------------------|

   C                                               D 
e|-----------------------------------------------|-------------------------------|
B|-10b12-10b12-10b12-10p8---8~--10-10\8---8------|-------------------------------|
G|------------------------9-------------9---9-7--|-9-9p7--7----------------------|
D|-----------------------------------------------|------9---9-7-5-7----7-6-5-4-5-|
A|-----------------------------------------------|-------------------7-----------|
E|-----------------------------------------------|-------------------------------|

   G                                          Bm 
e|--------12-12-10-10~-10/12-10-------------|--------12-10~-10/12-10-------------|
B|------------------------------13-12-10----|------------------------13-12-10-12-|
G|/12~-12--------------------------------12-|-11~--------------------------------|
D|------------------------------------------|------------------------------------|
A|------------------------------------------|------------------------------------|
E|------------------------------------------|------------------------------------|



   C                                         D    
e|----------------------------------------|-10-------------------------------------|
B|-13~-12-10-12-13-12-10~--------10-12-13-|----13-12-13—13p12-10-12-12p10-8-10-8-7-|
G|-------------------------11/12----------|----------------------------------------|
D|----------------------------------------|----------------------------------------|
A|----------------------------------------|----------------------------------------|
E|----------------------------------------|----------------------------------------|

Chorus

   Am       D            G     G#
(lead continued)      
B|-8~----- -7~------8-7—7/8~--|
      bahagianya hidup mereka,       

Am             D          G
   macam P.Ramlee & Saloma..


repeat Verse 2

Outro
   G                         Bm 
e|-------------------------|-------------------------|
B|-------------------------|-------------------------|
G|-------------------------|-------------------------|
D|-------------------------|-------------------------|
A|------7-5~--7--5-3-2-0---|----5-7-5~--7--5-3-2-0-2-|
E|-3~-3------------------3-|-2~----------------------|

   C                             D    
e|-----------------------------|----------------------------|
B|-----------------------------|----------------------------|
G|-----------------------------|----------------------------|
D|-----------------------------|---------------------5-7-5~-|
A|-3--2-0-2-3-2-0~--2-3-5-3-2--|-3-3-3/-5-5-5/-7-7-7--------|
E|-----------------------------|----------------------------|

   G                                          Bm 
e|--------12-12-10-10~-10/12-10-------------|--------12-10~-10/12-10-------------|
B|------------------------------13-12-10----|------------------------13-12-10-12-|
G|/12~-12--------------------------------12-|-11~--------------------------------|
D|------------------------------------------|------------------------------------|
A|------------------------------------------|------------------------------------|
E|------------------------------------------|------------------------------------|





   C                                      D  
e|-------------------------------------|-10-10-10------------------------------|
B|-13~-12-10-12-13-12-10~-----10-12-13-|-----------13-13-13-12-12-12-10-12-10--|
G|-------------------------12----------|---------------------------------------|
D|-------------------------------------|---------------------------------------|
A|-------------------------------------|---------------------------------------|
E|-------------------------------------|---------------------------------------|

   G
e|-------7~-----12~-----7~---------------|
B|-8~----------------------------8~------|
G|---------------------------------------|
D|---------------------------------------|
A|---------------------------------------|
E|---------------------------------------|

Enjoy !!

xxxxxxxxxxxxxxxxxxxxxxxxxxxxxxxxxxxxxxxxxxxxxxxxxxxxxxxxxxx
comment and rate if u like
ok…any considerable requests please contact me..
zar_of_filth92@yahoo.com
can search in fb.

Assalamualaikum…

Tap to rate this tab
 
# A B C D E F G H I J K L M N O P Q R S T U V W X Y Z