Guitaretab - guitar tabs
Song name
# A B C D E F G H I J K L M N O P Q R S T U V W X Y Z

The Living End - How Do We Know tab

Song:		How Do We Know
Artist:		The Living End
Album:		White Noise

Standard Tuning (E a d g b e)

Notation
p = pull off
h = hammer on
^ ( ) = bend to
( ) ^= release bend from
( ) = repick bend
/ = slide up
\ = slide down

This is the first song to be previewed from The Living End's new album, White Noise. You 
listen to the song on The Living End's myspace.

I'm pretty sure that this is 99% correct (the solo is the only part that I'm not 
sure, but it is still about 90% accurate at least, the rest of the song should be perfect).

Enjoy, A-RAD


Intro
e--------------------------------|
b-----3-3-3-3---3-3-3-3----------|
g----------------------(4)^2-0---|
d--------------------------------|
a--------------------------------|
E---0---------0------------------|

e---------------------------0-----|
b----3-3-3-3---3-3-3-3------------|
g----------------------2^(4)------|
d---------------------------------|
a---------------------------------|
E--0---------0--------------------|

e-------------------------------|
b-----3-3-3-3---3-3-3-3---------|
g----------------------(4)^2-0--|
d-------------------------------|
a-------------------------------|
E---0---------0-----------------|

e-----------0-------------------|
b---------0---3-----------------|
g---2^(4)------(4)^2-0--2--0----|
d----------------------2--2-----|
a-------------------------------|
E-------------------------------|
Repeat first 2 bars but second time play the bar below this

e-3P0--0------------------------------|
b-----3--3P0-3^(5)--3P0---0-----------|
g-----------------------2---2P0-------|
d-------------------------------2-----|
a-------------------------------------|
E-------------------------------------|

Verse x 3
e--------------------------------3------|
b--------------------------------0------|
g--------------------------------0------|
d-(2)---2-0-2-5-5-5-5-2-0---0----0------|    x 3
a-(2)---------------------2---2--x------|
E--0-----------------------------3------|

e-----------------------------------|
b-----------------------------------|
g-------------------7-7-7-7-7-7-----|
d-----2-0-2-5-2-----7-7-7-7-7-7-----|
a-------------------5-5-5-5-5-5-----|
E--0--------------------------------|

Pre-Chorus
e-----------------------------|
b-----------------------------|
g--2--------------------------|
d--2--------------------------|
a--0--------------------------|
E-----------------------------|
Strummed more than once but you should be able to work out the pattern

e--------------------------------3------|
b--------------------------------0------|
g--------------------------------0------|
d-(2)---2-0-2-5-5-5-5-2-0---0----0------|    x 2
a-(2)---------------------2---2--x------|
E--0-----------------------------3------|

e-------------------------3-------------------|
b-------------------------0-------------------|
g--2----------------------0-------------------|
d--2----------------------0-------------------|
a--0----------------------2-------------------|
E-------------------------3-------------------|

e----------------------------|
b----4-4-4-4----4-4-4-4---4--|
g----------------------------|
d----------------------------|
a----------------------------|
E--0---------0----------0----|

Chorus
e--------------------------------------------------------------|
b--------------------------------------------------------------|
g-----9-9-9-9----9-9-9-9---9---11-11-11-11--11-11-11-11---11---|
d--------------------------------------------------------------|
a-----7-7-7-7----7-7-7-7---7---9--9--9--9---9--9--9--9----9----|
E--0-----------0---------0----0-----------0-------------0------|

e-----------------------------------|
b-----------------------------------|
g----12-12-12-12---12-12-12-12--12--|
d-----------------------------------|
a----10-10-10-10---10-10-10-10--10--|
E--0-------------0-------------0----|

e-------------------------------------|
b-------------------------------------|
g---14-14-14-14---14-14-14-14---14----|
d-------------------------------------|
a---12-12-12-12---12-12-12-12---12----|
E-0-------------0-------------0-------|

Post Chorus
e-----------------------|
b-----------------------|
g---9-9-----9-9---------|
d---9-9-----9-9---------|
a---7-7-----7-7---------|
E-----------------------|

Verse x 2

Pre-Chorus

Chorus
[ Tab from: http://www.guitaretab.com/t/the-living-end/108835.html ]
Bridge
e------------------------------------------------|
b------------------------------------------------|
g--5-----------------------0---------------------|
d--5-----------------------2---------------------|
a--3-----------------------2---------------------|
E--------------------------0---------------------|
Played twice, Second time just let the E chord ring

Interlude
e--------------------------------|
b-----3-3-3-3---3-3-3-3----------|
g-----------------------(4)^2-0--|
d--------------------------------|
a--------------------------------|
E---0---------0------------------|

e---------------------------0----|
b----3-3-3-3---3-3-3-3-----------|
g----------------------2^(4)-----|
d--------------------------------|
a--------------------------------|
E--0---------0-------------------|

e--3^(5)-3^(5)-3-0---0--------------------|
b------------------3----3-0---0-----------|
g---------------------------2----2-0--0---|
d------------------------------------2----|
a-----------------------------------------|
E-----------------------------------------|

e-------------------------------|
b----3-3-3-3---3-3-3-3----------|
g----------------------(4)^2-0--|
d-------------------------------|
a-------------------------------|
E--0---------0------------------|

e---------------------------0-----|
b----3-3-3-3---3-3-3-3------------|
g----------------------2^(4)------|
d---------------------------------|
a---------------------------------|
E--0---------0--------------------|

e-----------------------------------------------|
b-----3-3-3-3---3-3-3-3----------3---^---(5)----|
g-----------------------(4)^2-0--2---^---(4)----|
d-----------------------------------------------|
a-----------------------------------------------|
E---0---------0---------------------------------|
		                |--repick---|

Solo
e---------------------------------------------|
b-------------13-13-13-13---------------------|
g---14-12-14--------------14-12---12---14~----|
d-----------------------------------14--------|
a---------------------------------------------|
E---------------------------------------------|

e--------------------------------------------|
b--13P12--12-13-15^(17)-(17)-(17)^15P13------|
g-------14------------------------------14---|
d--------------------------------------------|
a--------------------------------------------|
E--------------------------------------------|

e-----------------------------------------------------------------------|
b------12/13\12-----12/13\12----12-12-12-12---13-13-13-13----1517~~~---|
g---12-----------12-----------------------------------------------------|
d-------9/10\9-------9/10\9----9------------9--------------9------------|
a---9------------9------------------------------------------------------|
E-----------------------------------------------------------------------|

e---------------------------------------------|
b----12-12-12-12---13-13-13-13----1517~~~----|
g---------------------------------------------|
d--9-------------9--------------9-------------|
a---------------------------------------------|
E---------------------------------------------|

Chorus

Outro
e--------------------------------------------------------|
b--------------------------------------------------------|
g--5-----------------------0-----------------------------|
d--5-----------------------2-----------------------------|
a--3-----------------------2-----------------------------|
E--------------------------0-----------------------------|

e-------------------------------------|
b-------------------------------------|
g--5----------------7-------4---------|
d--5----------------7-------4---------|
a--3----------------5-------2---------|
E-------------------------------------|

e-------------------------------------|
b------3-3-3-3---3-3-3-3--------------|
g----------------------------(4)^2-0--|
d---2---------------------------------|
a---2---------------------------------|
E---0-----------0---------------------|

e------------------------------------0-----|
b-----3-3-3-3---3-3-3-3--------------------|
g---------------------------2^(4)----------|
d------------------------------------------|
a------------------------------------------|
E--0----------0----------------------------|

e------------------------------------------|
b------3-3-3-3---3-3-3-3-------------------|
g----------------------------(4)^2-0-------|
d---2---------------------------------2----|
a-------------------------------------2----|
E---0-----------0---------------------0----|

End.
Related for How Do We Know tab