Song name
# A B C D E F G H I J K L M N O P Q R S T U V W X Y Z

The Living End - Make The Call tab

note....i did not tab this....just thought id post it for all the living end fans
out there!!!!! ENJOY :D

MAKE THE CALL
THE LIVING END
WHITE NOISE (2008)
tabbed by Habibster

Drop D Tuning

verse/pre chorus has a kinda of gallopy feel (chug/cha-chug/cha-chug)

Intro
e--------------------------|-----------------------|
B--------------------------|-----------------------|
G--------------------------|-----------------------|
D--------------------------|-10h12-12-12-12-12-----|
A--------3p0-----6p0-5-(x3)|-10h12-12-12-12-12-----|
D--0-3-5-----5p0-----------|-10h12-12-12-12-12--(x2)|


Verse:
(p.m)
e---------------------|-----------------------|
B---------------------|-----------------------|
G---7--7-7------------|-----------------------|
D---7--7-7-(ect)------|-----------------(etc)-| 
A---5--5-5------------|-------3p0-------------|
D---------------------|-0-3h5-----5-0---------|

e-----------------------|
B-----------------------|
G-----------------------|
D-10h12-12-12-12-12-----| 
A-10h12-12-12-12-12-----|
D-10h12-12-12-12-12-----|


Pre Chorus thingy
e---------------------|-----------------|
B---------------------|-----------------|
G---------------------|-----------------|
D---5-5-5s8s3-5-5-5---|-----------------| 
A---5-5-5s8s3-5-5-5---|-------6p5-------|
D---5-5-5s8s3-5-5-5---|-5h7-8-----8-----|

Palm mute where required below.
e-----------------------|-----------------------|
B-----------------------|-----------------------|
G-----------------------|-----------------------|
D---5-5-5s8s3-5-5-5-5-5-|-7-8-8-8-8s7-7-7-7-----| 
A---5-5-5s8s3-5-5-5-5-5-|-7-8-8-8-8s7-7-7-7-----|
D---5-5-5s8s3-5-5-5-5-5-|-7-8-8-8-8s7-7-7-7-----|



e-----------------------|
B-----------------------|
G-----------------------|
D-10h12-12-12-12-12-----| 
A-10h12-12-12-12-12-----|
D-10h12-12-12-12-12-----|

Etc.

e-----------------------|-----------------------|---------------------------|
B-----------------------|-----------------------|---------------------------|
G-----------------------|-----------------------|---------------------------|
D-10h12-12-12-12-12-----|-10h12-12-12-12-12-----|-10h12-12-10h12-12-10h12-12|
A-10h12-12-12-12-12-----|-10h12-12-12-12-12-----|-10h12-12-10h12-12-10h12-12|
D-10h12-12-12-12-12-----|-10h12-12-12-12-12-----|-10h12-12-10h12-12-10h12-12|

chorus
D,C,A#,C,A,C

something like that, staccato/bouncy feel at the start of chorus



e-------------------------|-----------------|
B-------------------------|-----------------|
G-------------------------|-----------------|
D-12-12-10-11-12-12-(etc)-|-8-8-5-7-8-8-----|
A-12-12-10-11-12-12-------|-8-8-5-7-8-8-----|
D-12-12-10-11-12-12-------|-8-8-5-7-8-8-----|

Solo (kinda wrong)
e------------------------------0-3---0-3---0-3--0-3--|
B---2-5--2-5--2-5--2-5--2-5--2-----2-----2-----2-----|
G--3----3----3----3----3-----------------------------|
D----------------------------------------------------|
A----------------------------------------------------|
D----------------------------------------------------|

e--0-3-6--0-3-6--0-3-6--0-3-6--0-6-9--0-6-9--0-6-9--0-6-9-10^|
B------------------------------------------------------------|
G------------------------------------------------------------|
D------------------------------------------------------------|
A------------------------------------------------------------|
D------------------------------------------------------------|
My favourite part next  
Breakdown:
e------------------------------------------------------------|
B------------------------------------------------------------|
G------------------------------------------------------------|
D---0-3-2--7-3-5----s-s-0-3-2-0--7-3-5-----------------------|
A---0-3-2--7-3-5----s-s-0-3-2-0--7-3-5--(ect)----------------|
D---0-3-2--7-3-5----s-s-0-3-2-0--7-3-5-----------------------|
(keep doing that 
til drums come in)


e----------------------------------------|
B----------------------------------------|
G----------------------------------------|
D-10h12-12-12-12--10h12-12-12-12-12-12-12| 
A-10h12-12-12-12--10h12-12-12-12-12-12-12|
D-10h12-12-12-12--10h12-12-12-12-12-12-12|

(rapid fire D's  )

e-------------------------|----------------------------------------|
B-------------------------|----------------------------------------|
G-------------------------|----------------------------------------|
D-5-5-5-8-8-8-10-10-10-10-|---8-8-8-8-8-8---10-10-10-10-10---------| 
A-5-5-5-8-8-8-10-10-10-10-|---8-8-8-8-8-8---10-10-10-10-10---------|
D-5-5-5-8-8-8-10-10-10-10-|---8-8-8-8-8-8---10-10-10-10-10-let ring|

"So Make The Ca-ll" 
(Do that a few times) "what're you gonna do if they reset the bomb"

e------------------------------------------|
B------------------------------------------|
G------------------------------------------|
D---pickslide~~-0-3-2-0--7-3-5-------------|
A---pickslide~~-0-3-2-0--7-3-5--(ect)------|
D---pickslide~~-0-3-2-0--7-3-5-------------|

e------------------------------|
B------------------------------|
G------------------------------|
D---0-3-2-0--7-3-0-------------|
A---0-3-2-0--7-3-0-------------|
D---0-3-2-0--7-3-0-------------|
Tap to rate this tab
 
# A B C D E F G H I J K L M N O P Q R S T U V W X Y Z