Song name
# A B C D E F G H I J K L M N O P Q R S T U V W X Y Z

The Living End - White Noise Live tab

NOTE - I DID NOT TAB THIS...JUST PUTTING IT HERE FOR THE LIVING END FANS...LOVE THIS SONG...

LIVE VERSION OF...

WHITE NOISE
WHITE NOISE (2008)

Intro with Chris sing over it:

Bm G
E---------------------------------0-0-0-0-0-0-0-0-0-0-0-0-0-0-0-0-0-0-0-0-0-0-0-0-|
B----7-7-7-7-7-7--5-5-5-5-5-5-----5-5-5-5-5-5-3-3-3-3-3-3-2-2-2-2-2-2-3-3-3-3-3-3-|
G----7-7-7-7-7-7--6-6-6-6-6-6-x2--6-6-6-6-6-6-4-4-4-4-4-4-2-2-2-2-2-2-4-4-4-4-4-4-|
D----4-4-4-4-4-4--4-4-4-4-4-4-----0-0-0-0-0-0-0-0-0-0-0-0-0-0-0-0-0-0-0-0-0-0-0-0-|
G----4-4-4-4-4-4--4-4-4-4-4-4-----0-0-0-0-0-0-0-0-0-0-0-0-0-0-0-0-0-0-0-0-0-0-0-0-|
E---------------------------------------------------------------------------------| 
whole section twice
(you can hit the 7 on the little E if you want..)
Post Intro:

G D Eb C G D Eb C
E-------------------------------------|
B-12--7--8--5---12--7--8--5-----------|
G-12--7--8--5---12--7--8--5-----------|
D-12--7--8--5---12--7--8--5-----------|
G-0---0--0--0---0---0--0--0-----------|
E-------------------------------------| x 2

Verse 1
G Eb
E---------------------------------------|
B---------12-------------8--------------|
G----12------12------8-----8------------|
D-12----12------12s8---8-----8s12-------|
G-0~------------------------------------|
E---------------------------------------| x3
let the low g string ring out

for the last part of the verse do this
F
E---------------------------------------------|
B---------10-------------------10-------------|
G----10------10----10----10-------10----10----|
D-10----10------10----10----10-------10-------|
G---------------------------------------------|
E---------------------------------------------|

Verse 2
G Eb
E---------------------------------------|
B---------12-------------8--------------|
G----12------12------8-----8------------|
D-12----12------12s8---8-----8s12-------|
G---------------------------------------|
E---------------------------------------| x3

for the last part of the verse do this
F
E---------------------------------------------|
B---------10-------------------10-------------|
G----10------10----10----10-------10----10----|
D-10----10------10----10----10-------10-------|
G---------------------------------------------|
E---------------------------------------------|

Pre Chorus:

Stab these chords down
Cm Dm
E-8-8-8-888-8-8-88-10-10-10-101010-10-10-1010-|
B-8-8-8-888-8-8-88-10-10-10-101010-10-10-1010-|
G-8-8-8-888-8-8-88-10-10-10-101010-10-10-1010-|
D-5-5-5-555-5-5-55-7--7--7--7-7-7--7--7--7-7--|
G-5-5-5-555-5-5-55-7--7--7--7-7-7--7--7--7-7--|
E---------------------------------------------|
(work out the rhythm for your self lol i've got it in clusters which represents like a 
i guess hehe)

Stab these chords down
Cm Dm
E-8-8-8-888-8-8-88-10-10-10-101010-7-7-7-7--|
B-8-8-8-888-8-8-88-10-10-10-101010-7-7-7-7--|
G-8-8-8-888-8-8-88-10-10-10-101010-7-7-7-7--|
D-5-5-5-555-5-5-55-7--7--7--7-7-7--7-7-7-7--|
G-5-5-5-555-5-5-55-7--7--7--7-7-7--7-7-7-7--|
E-------------------------------------------|
Strum this up and down twice as fast as the stabs
D
E---------------------------|
B-7-7-7-7-7-7-7-7-7-7-7-7---|
G-7-7-7-7-7-7-7-7-7-7-7-7---|
D-7-7-7-7-7-7-7-7-7-7-7-7---|
G-7-7-7-7-7-7-7-7-7-7-7-7---|
E---------------------------|

Chorus:

Bm G
E---------------------------------0-0-0-0-0-0-0-0-0-0-0-0-0-0-0-0-0-0-0-0-0-0-0-0-|
B----7-7-7-7-7-7--5-5-5-5-5-5-----5-5-5-5-5-5-3-3-3-3-3-3-2-2-2-2-2-2-3-3-3-3-3-3-|
G----7-7-7-7-7-7--6-6-6-6-6-6-x2--6-6-6-6-6-6-4-4-4-4-4-4-2-2-2-2-2-2-4-4-4-4-4-4-|
D----4-4-4-4-4-4--4-4-4-4-4-4-----0-0-0-0-0-0-0-0-0-0-0-0-0-0-0-0-0-0-0-0-0-0-0-0-|
G----4-4-4-4-4-4--4-4-4-4-4-4-----------------------------------------------------|
E---------------------------------------------------------------------------------| 
whole section twice

Post Chorus:

G D Eb C G D Eb C
E-------------------------------------|
B-12--7--8--5---12--7--8--5-----------|
G-12--7--8--5---12--7--8--5-----------|
D-12--7--8--5---12--7--8--5-----------|
G-0---0--0--0---0---0--0--0-----------|
E-------------------------------------|

Verse 3
G Eb
E---------------------------------------|
B---------12-------------8--------------|
G----12------12------8-----8------------|
D-12----12------12s8---8-----8s12-------|
G-0~---------------0~-------------------|
E---------------------------------------| x3

for the last part of the verse do this
F
E---------------------------------------------|
B---------10-------------------10-------------|
G----10------10----10----10-------10----10----|
D-10----10------10----10----10-------10-------|
G-0~------------------------------------------|
E---------------------------------------------|

Verse 4
G Eb
E---------------------------------------|
B---------12-------------8--------------|
G----12------12------8-----8------------|
D-12----12------12s8---8-----8s12-------|
G--0~--------------0--------------------|
E---------------------------------------| x3

for the last part of the verse do this
F D
E--------------------------|
B---------10----------7----|
G----10------10-------7----|
D-10----10------10----7----|
G---------------------7----|
E--------------------------|

Chorus:

Bm G
E---------------------------------0-0-0-0-0-0-0-0-0-0-0-0-0-0-0-0-0-0-0-0-0-0-0-0-|
B----7-7-7-7-7-7--5-5-5-5-5-5-----5-5-5-5-5-5-3-3-3-3-3-3-2-2-2-2-2-2-3-3-3-3-3-3-|
G----7-7-7-7-7-7--6-6-6-6-6-6-x2--6-6-6-6-6-6-4-4-4-4-4-4-2-2-2-2-2-2-4-4-4-4-4-4-|
D----4-4-4-4-4-4--4-4-4-4-4-4-----0-0-0-0-0-0-0-0-0-0-0-0-0-0-0-0-0-0-0-0-0-0-0-0-|
G----4-4-4-4-4-4--4-4-4-4-4-4-----------------------------------------------------|
E---------------------------------------------------------------------------------| 
whole section twice


Post Chorus:
"The operator comes down on the line...."
E-5-5-5-5-5-5-3-3-3-3-3-3-2-2-2-2-2-2-2-2-2-2-2-2--7-7-7-3-3---|
B-3-3-3-3-3-3-3-3-3-3-3-3-2-2-2-2-2-2-5-5-5-5-5-5--7-7-7-3-3---|
G-4-4-4-4-4-4-4-4-4-4-4-4-2-2-2-2-2-2-2-2-2-2-2-2--7-6-7-4-3---|
D-5-5-5-5-5-5-5-5-5-5-5-5-2-2-2-2-2-2-2-2-2-2-2-2--7-7-4-0-0---|
G-0-0-0-0-0-0-0-0-0-0-0-0-2-2-2-2-2-2-2-2-2-2-2-2--7-6-4-0-0---|
E--------------------------------------------------------------|
Im not telling you how many times to play the chords. thats why you have ears =] Hold 
Bm but

Solo Start (remember this is the live version not studio):

E--7-7-7-7-7-7----------7-7-7-7-7-7------------|
B--8-8-8-8-8-8-10-10-10-8-8-8-8-8-8--10-10-10--|
G--9-9-9-9-9-9-11-11-11-9-9-9-9-9-9--11-11-11--|
D--9-9-9-9-9-9----------9-9-9-9-9-9------------|
G----------------------------------------------|
E----------------------------------------------|

E----------------------|
B--7~-7---7---5--5-----|
G--7~--7---7---6--6----|
D--4~---4---4---4--4---|
G--4~------------------|
E----------------------|

E--7-7-7-7-7-7----------7-7-7-7-7-7------------|
B--8-8-8-8-8-8-10-10-10-8-8-8-8-8-8--10-10-10--|
G--9-9-9-9-9-9-11-11-11-9-9-9-9-9-9--11-11-11--|
D--9-9-9-9-9-9----------9-9-9-9-9-9------------|
G----------------------------------------------|
E----------------------------------------------|

E----------------------|
B--7~-7---7---5--5-----|
G--7~--7---7---6--6----|
D--4~---4---4---4--4---|
G--4~------------------|
E----------------------|

E-5-5-5-5-5-5-3-3-3-3-3-3-2-2-2-2-2-2-2-2-2-2-2-2--|
B-3-3-3-3-3-3-3-3-3-3-3-3-2-2-2-2-2-2-5-5-5-5-5-5--|
G-4-4-4-4-4-4-4-4-4-4-4-4-2-2-2-2-2-2-2-2-2-2-2-2--|
D-5-5-5-5-5-5-5-5-5-5-5-5-2-2-2-2-2-2-2-2-2-2-2-2--|
G-0-0-0-0-0-0-0-0-0-0-0-0-2-2-2-2-2-2-2-2-2-2-2-2--|
E--------------------------------------------------|

E-7---7---0-2---------------|
B-7-7-7---0-2---------------|
G-7-6-7---0-2---------------|
D-7-7-4---2-4---------------|
G-7-6-4---4-3---------------|
E-------2-0-2---------------|
palm mute the F#

Strum Each chord 6 times (including the F# not by itself)
Strum the Em unti the chord changes to the F# (he strums it for like 7 bars

Post Solo:
e-------------------------------------------------------------------------------|
B--7-------7--5-----5--7------7--5-----5--5-----5--3-----3--2-----2--0-----0----|
G-----7---------6--------7---------6--------6--------4--------2--------0--------| x2
D--------4--------4--------4---------4--------0--------0--------0--------0------|
G--4----------4--------4---------4--------0--------0--------0--------0----------|
E-------------------------------------------------------------------------------|

Bm G
E---------------------------------0-0-0-0-0-0-0-0-0-0-0-0-0-0-0-0-0-0-0-0-0-0-0-0-|
B----7-7-7-7-7-7--5-5-5-5-5-5-----5-5-5-5-5-5-3-3-3-3-3-3-2-2-2-2-2-2-3-3-3-3-3-3-|
G----7-7-7-7-7-7--6-6-6-6-6-6-x2--6-6-6-6-6-6-4-4-4-4-4-4-2-2-2-2-2-2-4-4-4-4-4-4-|
D----4-4-4-4-4-4--4-4-4-4-4-4-----0-0-0-0-0-0-0-0-0-0-0-0-0-0-0-0-0-0-0-0-0-0-0-0-|
G----4-4-4-4-4-4--4-4-4-4-4-4-----------------------------------------------------|
E---------------------------------------------------------------------------------|
The Post solo is exactly the same as the Chorus except he finger picks single strings in 
chords so just use this and finger pick them softly.

Lead up:
E-----------------------------------------|
B-3----5----7----8----10----12---13-------|
G-4----6----7----9----11----12---14-------|
D-0-x6-0-x6-0-x6-0-x6-0--x6-0-x6-0--x12---|
G-0----0----0----0----0-----0----0--------|
E-----------------------------------------|

Outro Chordal Pattern:

E-7---7-----------------------|
B-7-7-7-3----5----7----8------|
G-7-6-7-4----6----7----9------|
D-7-7-4-0-x3-0-x3-0-x3-0------|
G-7-6-4-0----0----0----0------|
E-----------------------------|x3
Strum Chords Accordingly

E-7---7-------------------------------------10----10--|
B-7-7-7-3----5----7----8----10---8----10----11----11--|
G-7-6-7-4----6----7----9----11---9----11----12----12--|
D-7-7-4-0-x3-0-x3-0-x3-0-x3-0-x6-0-x3-0--x3-0-x12-0---|
G-7-6-4-0----0----0----0----0----0----0-----0-----0---|
E-----------------------------------------------------|
Stab the last chord really fast for a dramatic ending!
Tap to rate this tab
# A B C D E F G H I J K L M N O P Q R S T U V W X Y Z