Song name
# A B C D E F G H I J K L M N O P Q R S T U V W X Y Z

The Living End - Moment In The Sun tab

Moment in the Sun


== Intro ==

Lead:

e-------------------------------------------------------------------|
B-10-10-10-10-10-10-10-10-10-9-------10-10-10-10-10-10-10-10-10--9--|
G--x--x--x--x--x--x--x--x--x-x--x2----7--7--7--7--7--7--7--7--7--7--| 
D--7--7--7--7--7--7--7--7--7-7--------7--7--7--7--7--7--7--7--7--7--|
A-------------------------------------------------------------------|
E-------------------------------------------------------------------|

e--9--9--9--9--9--9--9--9--9--9--|
B-10-10-10-10-10-10-10-10-10-10--|
G--7--7--7--7--7--7--7--7--7--7--| x2
D--7--7--7--7--7--7--7--7--7--7--| 
A--------------------------------|
E--------------------------------|

Rhythm:

A F#m D
e--------------9--9---------------|
B--14-14-------10-10-------7------|
G--14-14--x4---11-11--x4---7--x16-| x2
D--14-14-------11-11-------7------|
A--12-12-------9--9--------5------|
E---------------------------------|


== Verse ==

Chords - Arpegiated:

? A
e-------------|
B--3-------2--|
G--2-------2--| x4
D--3-------2--|
A--0-------0--|
E-------------|

Lead:

e------------|-----------------------|------------|
B--10--5--6--|--10--5--6--8--5-------|--10--5--6--|
G--x---x--x--|--x---x--x--x--x---x2--|--x---x--x--|
D--7---2--3--|--7---2--3--5--2-------|--7---2--3--|
A------------|-----------------------|------------|
E------------|-----------------------|------------|

== Pre-Chorus ==

Chords (Strum as needed, short sharp strums)

F#m C#m Bm C#m E D E
e--9----4----2---4----0-------------------------|
B--10---5----3---5----0-------------------7--9--|
G--11---6----4---6----1--Then these two --7--9--| 
D--11---6----4---6----2-------quickly-----7--9--|
A--9----4----2---4----2-------------------5--7--|
E---------------------0-------------------------|

== Chorus ==

e-------------------------------------------------------------------|
B-10-10-10-10-10-10-10-10-10-9-------10-10-10-10-10-10-10-10-10--9--|
G--x--x--x--x--x--x--x--x--x-x--x2----7--7--7--7--7--7--7--7--7--7--| 
D--7--7--7--7--7--7--7--7--7-7--------7--7--7--7--7--7--7--7--7--7--|
A-------------------------------------------------------------------|
E-------------------------------------------------------------------|



e--9--9--9--9--9--9--9--9--9--9--|
B-10-10-10-10-10-10-10-10-10-10--|
G--7--7--7--7--7--7--7--7--7--7--| 
D--7--7--7--7--7--7--7--7--7--7--| 
A--------------------------------|
E--------------------------------|

Rhythm:

A F#m D
e--------------9--9---------------|
B--14-14-------10-10-------7------|
G--14-14--x4---11-11--x4---7--x16-| 
D--14-14-------11-11-------7------|
A--12-12-------9--9--------5------|
E---------------------------------|

Then just chords:

A F#m D D D E A
e---------------2------------------------------0-----|
B--------2------2------7--7---Quick strums--7--0--2--|
G--------2------2------7--7-----------------7--1--2--|
D--------2------4------7--7-----------------7--2--2--|
A--------0------4------5--5-----------------5--2--0--|
E--\\\\-----4~--2---0--------------------------0-----|


== Verse ==

Chords - Strummed hard twice, then palm muted:

? A
e-------------|
B--3-------2--|
G--2-------2--| x4
D--3-------2--|
A--0-------0--|
E-------------|

No lead, except for a little bit at the end


== Pre-Chorus ==

Chords (Strum as needed, short sharp strums)

F#m C#m Bm C#m E D E
e--9----4----2---4----0-------------------------|
B--10---5----3---5----0-------------------7--9--|
G--11---6----4---6----1--Then these two --7--9--| 
D--11---6----4---6----2-------quickly-----7--9--|
A--9----4----2---4----2-------------------5--7--|
E---------------------0-------------------------|

== Chorus ==

e-------------------------------------------------------------------|
B-10-10-10-10-10-10-10-10-10-9-------10-10-10-10-10-10-10-10-10--9--|
G--x--x--x--x--x--x--x--x--x-x--x2----7--7--7--7--7--7--7--7--7--7--| 
D--7--7--7--7--7--7--7--7--7-7--------7--7--7--7--7--7--7--7--7--7--|
A-------------------------------------------------------------------|
E-------------------------------------------------------------------|



e--9--9--9--9--9--9--9--9--9--9--|
B-10-10-10-10-10-10-10-10-10-10--|
G--7--7--7--7--7--7--7--7--7--7--| 
D--7--7--7--7--7--7--7--7--7--7--| 
A--------------------------------|
E--------------------------------|

Rhythm:

A F#m D
e--------------9--9---------------|
B--14-14-------10-10-------7------|
G--14-14--x4---11-11--x4---7--x16-| 
D--14-14-------11-11-------7------|
A--12-12-------9--9--------5------|
E---------------------------------|

Then just chords:

A F#m D D D E A
e---------------2------------------------------0-----|
B--------2------2------7--7---Quick strums--7--0--2--|
G--------2------2------7--7-----------------7--1--2--|
D--------2------4------7--7-----------------7--2--2--|
A--------0------4------5--5-----------------5--2--0--|
E--\\\\-----4~--2---0--------------------------0-----|


== Bridge ==

D A D D
e-------------------5-------------------------------------|
B--7----------------5---------------------7---7----3---3--|
G--7---9-9--11--13--6---11--11--13--14----7---7----2---2--|
D--7---x-x--x---x---7---x---x---x---x-----7---7----3---3--|
A--5---7-7--9---11--7---9---9---11--12----5---5----0---0--|
E-------------------5-------------------------------------|


A F#m D D
e---------------2-------------|
B--------2------2------7--7---|
G--------2------2------7--7---|
D--------2------4------7--7---|
A--------0------4------5--5---|
E--\\\\-----4~--2---0---------|
“Go!”

Lead:

e-------------------------------------------------------------------|
B-10-10-10-10-10-10-10-10-10-9-------10-10-10-10-10-10-10-10-10--9--|
G--x--x--x--x--x--x--x--x--x-x--x2----7--7--7--7--7--7--7--7--7--7--| 
D--7--7--7--7--7--7--7--7--7-7--------7--7--7--7--7--7--7--7--7--7--|
A-------------------------------------------------------------------|
E-------------------------------------------------------------------|

e--9--9--9--9--9--9--9--9--9--9--|
B-10-10-10-10-10-10-10-10-10-10--|
G--7--7--7--7--7--7--7--7--7--7--| 
D--7--7--7--7--7--7--7--7--7--7--| 
A--------------------------------|
E--------------------------------|

Rhythm:

A F#m D
e--------------9--9---------------|
B--14-14-------10-10-------7------|
G--14-14--x4---11-11--x4---7--x16-| 
D--14-14-------11-11-------7------|
A--12-12-------9--9--------5------|
E---------------------------------|


e--------------------------------------------|
B--9----7----9----7----9----7----9----7---9--|
G--9----7----9----7----9----7----9----7---9--|
D--9----7----9----7----9----7----9----7---9--|
A--7----5----7----5----7----5----7----5---7--|
E--------------------------------------------|
“Don’t care…”

Lead:

e--------------------------------------------------------------------9--|
B-10-10-10-10-10-10-10-10-10-9-------10-10-10-10-10-10-10-10-10--9--10--|
G--x--x--x--x--x--x--x--x--x-x--x2----7--7--7--7--7--7--7--7--7--7---7--| 
D--7--7--7--7--7--7--7--7--7-7--------7--7--7--7--7--7--7--7--7--7---7--|
A-----------------------------------------------------------------------|
E-----------------------------------------------------------------------|

Chords, in sync with drums:

e-------------------------9--9--9--9--9--9--9--9---------------------------|
B--14-14-14-14-14-14------10-10-10-10-10-10-10-10-----7-7-7-7-7-7-7-7---7--|
G--14-14-14-14-14-14------11-11-11-11-11-11-11-11-----7-7-7-7-7-7-7-7---7--|
D--14-14-14-14-14-14------11-11-11-11-11-11-11-11-----7-7-7-7-7-7-7-7---7--|
A--12-12-12-12-12-12------9--9--9--9--9--9--9--9------5-5-5-5-5-5-5-5---5--|
E--------------------------------------------------------------------------|

== Final Chorus ==

A F#m D D
e---------------2-------------|
B--------2------2------7--7---| 
G--------2------2------7--7---| x3
D--------2------4------7--7---|
A--------0------4------5--5---|
E--\\\\-----4~--2---0---------|

e-------------------------------0--0--2--|
B--7-7-7-7-7-7-7-7-7-7-7-7-7-7--0--0--2--|
G--7-7-7-7-7-7-7-7-7-7-7-7-7-7--0--0--2--|
D--7-7-7-7-7-7-7-7-7-7-7-7-7-7--2--2--4--|
A--5-5-5-5-5-5-5-5-5-5-5-5-5-5--2--2--4--|
E--5-5-5-5-5-5-5-5-5-5-5-5-5-5--0--0--2--|
“Don’t care…”

END
__________________
Tap to rate this tab
# A B C D E F G H I J K L M N O P Q R S T U V W X Y Z