Song name
# A B C D E F G H I J K L M N O P Q R S T U V W X Y Z

The Living End - Roll On tab

Artist : The Living End
Song : Roll On
Album : Roll On

Transcribed by : Amir Jafari
E-Mail : CCSkater7!aol.com

^ - Bend
^^^ - Bend, Strum-Release (releasing very slowly while strumming it)
~ - Vibrato

Standard Tuning....this is the correct tab for the solo...refer to the other tab
that other kid posted for the verses. I'll post the correct verses and choruss as
well.

E:---------------------------------------------------------------------|
B:--8^-----------------------------------------------------------------|
G:-----9-9-----7h9p7---7-----------------------------------------------|
D:---------7h9-------9---9-8-7-5---7---5-------------------------------|
A:-------------------------------7---7---7-----------------------------|
E:----------------------------------------0/---------------------------|

E:-------------------------1-------------5---------------------------------------|
B:------------------111111-----------------8-5---8-5-----5-----------------------|
G:-----------222222--------------5--7^---------7-----7-5---7-5---7-5-------------|
D:-3--333333-----------------2\7-------------------------------7-----7-5-7~~~----|
A:-3-----------------------------------------------------------------------------|
E:-1-----------------------------------------------------------------------------|

E:----------------------------------------------------|
B:--8-10-10--8-10-10--8-10-11--8-10-11--8-10-11---8---|
G:-10-10-10-10-10-10-10-10-10-10-10-10-10-10-10--10---|
D:----------------------------------------------------|
A:----------------------------------------------------|
E:----------------------------------------------------|

E:--------15------------------------|
B:-12-15^----15p12h15-15^^^~~~------|
G:----------------------------------|
D:----------------------------------|
A:----------------------------------|
E:----------------------------------|
Tap to rate this tab
 
# A B C D E F G H I J K L M N O P Q R S T U V W X Y Z