Song name
# A B C D E F G H I J K L M N O P Q R S T U V W X Y Z

The Living End - Sleep On It tab

-------------------------------------------------------------------------------
			     Sleep On It - The Living End
-------------------------------------------------------------------------------
Tabbed by: Luke Moroney
Email: Azerial_Enterprises@hotmail.com

This isn't 100% correct but it's 99.9 better then all the other 'Sleep on It' 
tabs on the net. If anyone fixes it and makes it better e-amil me cos I wana
know.
I'll finish it another time cos i'm so tired right now.
Let me know what you think of it aswell.

Tuning: standard

e|---------------------------------------------------------------------------|
B|----------0-1-------------------------0-1----------------------------------|
G|------2---------2-----------------2---------------4------------------------|
D|----2---2---------2------5-5--------0---------5-----5----------------------|
A|--0-----------0-----0-0--5-5--3-------------5---5--------------------------|
E|-------------------------3-3----1---------3--------------------------------|

e|---------------------------------------------------------------------------|
B|----------0-1-------------------------0-1---5--3--1--0---------------------|
G|------2---------2-----------------2----------------------------------------|
D|----2---2---------2------5-5--------0--------------------------------------|
A|--0-----------0-----0-0--5-5--3--------------------------------------------|
E|-------------------------3-3----1------------------------------------------|

e|---------------------------------------------------------------------------|
B|----------0-1-------------------------0-1---5--3--1--0--1------------------|
G|------2---------2-----------------2---------------------2------------------|
D|----2---2---------2------5-5--------0-------------------2------------------|
A|--0-----------0-----0-0--5-5--3-------------------------0------------------|
E|-------------------------3-3----1------------------------------------------|
Tap to rate this tab
# A B C D E F G H I J K L M N O P Q R S T U V W X Y Z