Song name
# A B C D E F G H I J K L M N O P Q R S T U V W X Y Z

The Living End - Tabloid Magazine tab

The Living End- Tabloid Magazine [Intro]
Tuning- Standard (E A d g b e)

I saw some funky lookin intro tabs for this song so I decided to learn the intro myself. 
pretty good to me. First tab by the way..
Key:
h- hammer on
p- pull-off
b-bend
/-slide to fret..

Intro part 1
e|--------------------------|   (x2)
b|--------------------------|
g|--9b11--9b11--9b11--9b11--|
d|--------------------------|
A|--------------------------|
E|--------------------------|

Intro Solo
e|----------------------------------------------------------------------|
b|-------------------------------------10-7-----------------------------|
g|-9b11-9b11-9b11-9b11-9b11-9b11-9b11-------9p7---7-------------7h9b11--|
d|----------------------------------------------9---9---7-9-7h9---------|
A|----------------------------------------------------9-----------------|
E|----------------------------------------------------------------------|

e|----------------------------------------------------------------------|
b|------------------------------------10-7-------10-------10---10-------|
g|-7h9----7h9-9-7-9/11-11-11-11-11-11------9p7--------------------------|
d|---------------------------------------------9----9-7h9----9----9-7h9-|
A|----------------------------------------------------------------------|
E|----------------------------------------------------------------------|

e|----------------------------------------------------------------------|
b|-10---10-------10-------10----10---10---10----------------------------|
g|----------------------------------------------------------------------|
d|----9----9-7h9----9-7h9----9-----9----9----9--------------------------|
A|----------------------------------------------------------------------|
E|----------------------------------------------------------------------|


Tabbed by- Scott Rabara
Questions and comments: cyrusius@aol.com
Let me know if you like it! Its my first song I ever tabbed out and learned by ear..
Tap to rate this tab
# A B C D E F G H I J K L M N O P Q R S T U V W X Y Z