Song name
# A B C D E F G H I J K L M N O P Q R S T U V W X Y Z

The Living End - Wake Up tab

WAKE UP

again, tabbed by Jason Zarpellon
I only sent this in

ITS THE BEST ONE
pm = Palm mute
() = Harmonics*
x = Dead note

*To play the harmonics, put your finger LIGHTLY over whatever fret 
 the tab says to, but don't press down. Then just pluck the string





Intro: Delay effect
     
  Bm              Em                               A
e-----------------------------------------------------------------|
b-----------------------------------------------------------------|
g------4---2---------------------------4---2-----------2----------|
d----4---------4-------5---4---2-----4---------4-----2-----2---4--|
a--2-----2---2-------2-------------2-----2---2-----0-----0---0----|
e------------------0-----0---0------------------------------------|

                   G
e-----------------------------------------------------------------|
b-----------------------------------------------------------------|
g------4---2-----------2---0-----------4---2----------------------|
d----4---------4-----0---------0-----4---------2--4---------------| All that x2
a--2-----2---2---------------------2-----2---2--------------------| 
e------------------3-----3---3------------------------------------|




Verse: 
           
e-----------------------------------------------------------------|
b-----------------------------------------------------------------|
g------4---2---------------------------4---2-----------2----------|
d----4---------4-------5---4---2-----4---------4-----2-----2---4--|
a--2-----2---2-------2-------------2-----2---2-----0-----0---0----|
e------------------0-----0---0------------------------------------|
I've been buried in the sand
I've come down with no place to land



e-----------------------------------------------------------------|
b-----------------------------------------------------------------|
g------4---2-----------2---0-----------4---2-----------4-4-4-4-4--|
d----4---------4-----0---------0-----4---------2--4----4-4-4-4-4--| 
a--2-----2---2---------------------2-----2---2---------2-2-2-2-2--| 
e------------------3-----3---3------------------------------------|
I don't need you to understand
It's not what I had planned



e-----------------------------------------------------------------|
b-----------------------------------------------------------------|
g------4---2---------------------------4---2-----------2----------|
d----4---------4-------5---4---2-----4---------4-----2-----2---4--|
a--2-----2---2-------2-------------2-----2---2-----0-----0---0----|
e------------------0-----0---0------------------------------------|
All the hunger, all the yearning
With the lifeline that you're burning

                                                  F#              F#maj7
e-----------------------------------------------------------------2-2-2-2-2-2-2-2--|
b-------------------------------------------------2-2-2-2-2-2-2-2-2-2-2-2-2-2-2-2--|
g------4---2-----------2---------------4---2------3-3-3-3-3-3-3-3-3-3-3-3-3-3-3-3--|
d----4---------4-----0-----2---4-----4---------2--4-4-4-4-4-4-4-4-3-3-3-3-3-3-3-3--| 
a--2-----2---2---------------------2-----2---2----4-4-4-4-4-4-4-4-4-4-4-4-4-4-4-4--| 
e------------------3-----3---3--------------------2-2-2-2-2-2-2-2-2-2-2-2-2-2-2-2--|
Poison lessons that you're learning
The road ahead is turning


Chorus:
   Bm               G                D                F#
e--2-2-2-2-2-2-2-2--3-3-3-3-3-3-3-3--2-2-2-2-2-2-2-2--2-2-2-2-2-2-2-2--|
b--3-3-3-3-3-3-3-3--3-3-3-3-3-3-3-3--3-3-3-3-3-3-3-3--2-2-2-2-2-2-2-2--|
g--4-4-4-4-4-4-4-4--4-4-4-4-4-4-4-4--2-2-2-2-2-2-2-2--3-3-3-3-3-3-3-3--|
d--4-4-4-4-4-4-4-4--5-5-5-5-5-5-5-5--0-0-0-0-0-0-0-0--4-4-4-4-4-4-4-4--| x2
a--2-2-2-2-2-2-2-2--5-5-5-5-5-5-5-5-------------------4-4-4-4-4-4-4-4--|
e-------------------3-3-3-3-3-3-3-3-------------------2-2-2-2-2-2-2-2--|
Suicidal Education
It got sold to our generation
Wake up to the manipulation
Wake up to the situation


e--3-3-3-3-3-3-3-3-3-3-3-3-3-3-3-3----|
b--3-3-3-3-3-3-3-3-3-3-3-3-3-3-3-3----|
g--4-4-4-4-4-4-4-4-4-4-4-4-4-4-4-4----|
d--5-5-5-5-5-5-5-5-5-5-5-5-5-5-5-5----| 
a--5-5-5-5-5-5-5-5-5-5-5-5-5-5-5-5----|
e--3-3-3-3-3-3-3-3-3-3-3-3-3-3-3-3----|
Suicidal education


Post Chorus:

e--2-----------------------------------------2-2--|
b--3---------------3------------3------------3-2--|
g--4---------------4------------4------------4-2--|
d--4--4--4-4-4--4--4--4-4-4--4--4--4-4-4--4--4-2--| x2
a--2--2--2-2-2--2--2--2-2-2--2--2--2-2-2--2--2-2--|
e-------------------------------------------------|
      pm.........     ........     ........




Verse 2:

e--2---------------------------------------------------------------------------------------|
b--3-----3------------3------------------------------3------------3--------2------------2--|
g--4-----4------------4--------0------------0--------4------------4--------2------------2--|
d--4--4--4--4-4-4--4--4--------2------------2--4--4--4--4-4-4--4--4--2--2--2--2-2-2--2--2--| 
a--2--2--2--2-2-2--2--2--2--2--2--2-2-2--2--2--2--2--2--2-2-2--2--2--0--0--0--0-0-0--0--0--|
e------------------------0--0--0--0-0-0--0--0----------------------------------------------|
     pm     ........     ....     ........     ....     ........     ....     ........
Stick together side by side
We no longer need to hide    


e---------------------------------------------------------------------------------------2--2--|
b--------3------------3------------------------------3------------3--------3------------3--2--|
g--------4------------4--------4------------4--------4------------4--------4------------4--2--|
d--4--4--4--4-4-4--4--4--------5------------5--4--4--4--4-4-4--4--4--4--4--4--4-4-4--4--4--2--| 
a--2--2--2--2-2-2--2--2--5--5--5--5-5-5--5--5--2--2--2--2-2-2--2--2--2--2--2--2-2-2--2--2--2--|
e------------------------3--3--3--3-3-3--3--3-------------------------------------------------|
   pm..     ........     ....     ........     ....     ........     ....     ........
From the darkness into the light
Now is your time


e--2---------------------------------------------------------------------------------------|
b--3-----3------------3------------------------------3------------3--------2------------2--|
g--4-----4------------4--------0------------0--------4------------4--------2------------2--|
d--4--4--4--4-4-4--4--4--------2------------2--4--4--4--4-4-4--4--4--2--2--2--2-2-2--2--2--| 
a--2--2--2--2-2-2--2--2--2--2--2--2-2-2--2--2--2--2--2--2-2-2--2--2--0--0--0--0-0-0--0--0--|
e------------------------0--0--0--0-0-0--0--0----------------------------------------------|
     pm     ........     ....     ........     ....     ........     ....     ........
I need something to numb the pain
Forget me and forget my name


e----------------------------------------------------------------------|
b--------3------------3------------------------------3------------3----|
g--------4------------4--------4------------4--------4------------4----|
d--4--4--4--4-4-4--4--4--------5------------5--4--4--4--4-4-4--4--4----| 
a--2--2--2--2-2-2--2--2--5--5--5--5-5-5--5--5--2--2--2--2-2-2--2--2----|
e------------------------3--3--3--3-3-3--3--3--------------------------|
   pm..     ........     ....     ........     ....     ........     
Waiting for the time to arrive
No one gets...


e------------------2-2-2-2-2-2-2-2--|
b--2-2-2-2-2-2-2-2-2-2-2-2-2-2-2-2--|
g--3-3-3-3-3-3-3-3-3-3-3-3-3-3-3-3--|
d--4-4-4-4-4-4-4-4-3-3-3-3-3-3-3-3--| 
a--4-4-4-4-4-4-4-4-4-4-4-4-4-4-4-4--|
e--2-2-2-2-2-2-2-2-2-2-2-2-2-2-2-2--|
Out of here alive



Chorus



Bridge: 
Rhythm
e--2--x-x--x-x--x-x--|
b--3--x-x--x-x--x-x--|
g--4--x-x--x-x--x-x--|
d--4--x-x--x-x--x-x--| x6
a--2--x-x--x-x--x-x--|
e--------------------|


Lead (comes in after rythym is played twice)
e--------------------------------(7)-(7)-(7)---------------|
b--(12)-(12)--(12)--(7)-(7)-(7)----------------------------|
g---------------------------------------------(5)-(5)-(5)--|
d----------------------------------------------------------| x2
a----------------------------------------------------------|
e----------------------------------------------------------|


Chorus

First half of verse x2

Chorus, but fingerpicked rather than strumed

Finish on:

e--2--|
b--3--|
g--4--|
d--4--|
a--2--|
e-----|


Tabbed by Jason Zarpellon
Tap to rate this tab
# A B C D E F G H I J K L M N O P Q R S T U V W X Y Z