Song name
# A B C D E F G H I J K L M N O P Q R S T U V W X Y Z

The Living End - No Way Out tab

NO WAY OUT

5ironaudiorage

/ = slide up
\ = slide down 
h = hammer on
p = pull off
b = half bend
^ =bend one fret
^^ = bend 2 frets
v = release bend
pm = palm mute
x = dead note


Have Fun:

Intro/Verse:

e---------------------------------------------------------------------|
b------4-------4-------4-------4-------3-------3-------3-------3------|
g----1---1---1---1---1---1---1---1---3---3---3---3---3---3---3---3----|
d--3-------3-------3-------3-------3-------3-------3-------3----------| Repeat as needed
a---------------------------------------------------------------------|
e---------------------------------------------------------------------|



Chorus:

e--------------------------------------------------------------------------------------|
b---------------------------------------------------6-6-6-6-6-6-6-6-6-6-6-6-6-6-6-6----|
g--10-10-10-10-10-10-10-10-10-10-10-10-10-10-10-10--6-6-6-6-6-6-6-6-6-6-6-6-6-6-6-6----|
d--8--8--8--8--8--8--8--8--8--8--8--8--8--8--8--8---8-8-8-8-8-8-8-8-8-8-8-8-8-8-8-8----| x2
a--8--8--8--8--8--8--8--8--8--8--8--8--8--8--8--8---8-8-8-8-8-8-8-8-8-8-8-8-8-8-8-8----|
e--6--6--6--6--6--6--6--6--6--6--6--6--6--6--6--6---6-6-6-6-6-6-6-6-6-6-6-6-6-6-6-6----|

e-------------------------------------|
b--6-6-6-6-6-6-6-6-6-6-6-6-6-6-6-6----|
g--6-6-6-6-6-6-6-6-6-6-6-6-6-6-6-6----|
d--8-8-8-8-8-8-8-8-8-8-8-8-8-8-8-8----|
a--9-9-9-9-9-9-9-9-9-9-9-9-9-9-9-9----|
e--6-6-6-6-6-6-6-6-6-6-6-6-6-6-6-6----|


Verse

Chorus

Bridge:

e--------------------------------------------------------------------|
b--------------------------------------------------------------------|
g-----------------------------------8-8-8-8-8-8-8-8-8-8-8-8-8-8-8-8--|
d--8-8-8-8-8-8-8-8-8-8-8-8-8-8-8-8--8-8-8-8-8-8-8-8-8-8-8-8-8-8-8-8--| x2
a--8-8-8-8-8-8-8-8-8-8-8-8-8-8-8-8--6-6-6-6-6-6-6-6-6-6-6-6-6-6-6-6--|
e--6-6-6-6-6-6-6-6-6-6-6-6-6-6-6-6-----------------------------------|
"Will we ever get back home"

e----------------------------------------|
b----------------------------------------|
g----------------------------------------|
d--4-4-4-4-4-4-4-4-4-4-4-4-4-4--6-6-6----|
a--4-4-4-4-4-4-4-4-4-4-4-4-4-4--6-6-6----|
e--2-2-2-2-2-2-2-2-2-2-2-2-2-2--4-4-4----|

e--------------------------------------------------------------------|
b--------------------------------------------------------------------|
g-----------------------------------8-8-8-8-8-8-8-8-8-8-8-8-8-8-8-8--|
d--8-8-8-8-8-8-8-8-8-8-8-8-8-8-8-8--8-8-8-8-8-8-8-8-8-8-8-8-8-8-8-8--| x2
a--8-8-8-8-8-8-8-8-8-8-8-8-8-8-8-8--6-6-6-6-6-6-6-6-6-6-6-6-6-6-6-6--|
e--6-6-6-6-6-6-6-6-6-6-6-6-6-6-6-6-----------------------------------|
"I cant see the way out"

e--2-2-2-2-2-2-2-2-2-2-2-2-2-2-2-2-2--2-2-2-2-2-2-2-2-2-2-2-2-2-2-2-2----|
b--2-2-2-2-2-2-2-2-2-2-2-2-2-2-2-2-2--2-2-2-2-2-2-2-2-2-2-2-2-2-2-2-2----|
g--3-3-3-3-3-3-3-3-3-3-3-3-3-3-3-3-3--2-2-2-2-2-2-2-2-2-2-2-2-2-2-2-2----|
d--4-4-4-4-4-4-4-4-4-4-4-4-4-4-4-4-4--4-4-4-4-4-4-4-4-4-4-4-4-4-4-4-4----|
a--4-4-4-4-4-4-4-4-4-4-4-4-4-4-4-4-4--4-4-4-4-4-4-4-4-4-4-4-4-4-4-4-4----|
e--2-2-2-2-2-2-2-2-2-2-2-2-2-2-2-2-2--2-2-2-2-2-2-2-2-2-2-2-2-2-2-2-2----|


Outro:
e--2-2-2-2-2-2-2-2-2-2-2-2-2-2-2-2-2--2-2-2-2-2-2-2-2-2-2-2-2-2-2-2-2----|
b--2-2-2-2-2-2-2-2-2-2-2-2-2-2-2-2-2--2-2-2-2-2-2-2-2-2-2-2-2-2-2-2-2----|
g--3-3-3-3-3-3-3-3-3-3-3-3-3-3-3-3-3--2-2-2-2-2-2-2-2-2-2-2-2-2-2-2-2----|
d--4-4-4-4-4-4-4-4-4-4-4-4-4-4-4-4-4--4-4-4-4-4-4-4-4-4-4-4-4-4-4-4-4----|
a--4-4-4-4-4-4-4-4-4-4-4-4-4-4-4-4-4--4-4-4-4-4-4-4-4-4-4-4-4-4-4-4-4----|
e--2-2-2-2-2-2-2-2-2-2-2-2-2-2-2-2-2--2-2-2-2-2-2-2-2-2-2-2-2-2-2-2-2----|
Tap to rate this tab
 
# A B C D E F G H I J K L M N O P Q R S T U V W X Y Z