Guitaretab - guitar tabs
Song name
# A B C D E F G H I J K L M N O P Q R S T U V W X Y Z

The Living End - Rip It Up tab

     -THE LVING END-
                    Rip It Up
      (Cover song-Juice Magazine November 2000)
                  
               Tabbed By Mick Fryar
               manumick20@yahoo.com

h=hammer on
p=pull off
^=bend
~=vibrado



Intro:

   D     E
e----------------------|
b------------------9^--|
g--7-7-x-9-9-------9^--|
d--7-7-x-9-9-(x2)------|
a--5-5-x-7-7-----------|
e----------------------|

Riff:

   A                                
e----------------------------------|
b----------------------------------|
g----------------------------------|
d---------2-2-4-4-5-5-4-4-2-2------|
a-0-0-4-4---------------------4-4--|
e----------------------------------|

   E
e---------------------------------|
b---------------------------------|
g---------------------------------|
d---------------------------------|
a----------2-2-4-4-5-5-4-4-2-2----|
e--0-0-4-4---------------------4-4|

   A                                
e----------------------------------|
b----------------------------------|
g----------------------------------|
d---------2-2-4-4-5-5-4-4-2-2------|
a-0-0-4-4---------------------4-4--|
e----------------------------------|

   E
e---------------------------------|
b---------------------------------|
g---------------------------------|
d---------------------------------|
a----------2-2-4-4-5-5-4-4-2-2----|
e--0-0-4-4---------------------4-4|


     B
e----------------------|
b----------------------|
g-4-4-4-4-4-4-4-4-4----|
d-4-4-4-4-4-4-4-4-4----|
a-2-2-2-2-2-2-2-2-2----|
e----------------------|

  B   A  G  A A# B E
e--------------------|
b--------------------|
g--4--2-----------9--|
d--4--2--5--7-8-9-9--|
a--2--0--5--7-8-9-7--|
e--------3--5-6-7----|

Intro

Riff


Solo:

e----------------------------------------------|
b--9--9--9--9--9-------------------------------|
g--9^-9^-9^-9^-9^-repeated---------------------|
d--------------------------------9^-7----------|
a-------------------------------------9-7-6-5--|
e----------------------------------------------|


e------------------------|
b--9^-9-8----------------|
g--9^-9-8----------------|
d---------9--7-9-7-------|
a------------------9-7---|
e------------------------|

[ Tab from: http://www.guitaretab.com/t/the-living-end/150905.html ]
e----------------------------------|
b----------------------------------|
g----------------------------------|
d----------------------------------|
a-0-0-3-0-2-0-3-0------------------|
e-----------------3-0-2-0-3-2-0-0--|


e-----------------------------------7----8----9-----10-|
b----12----12----12----12--12-12----7----8----9-----10-|
g-12-12-12-12-12-12-12-12--12-12--7----8----9----10----|
d------------------------------------------------------|
a------------------------------------------------------|
e------------------------------------------------------|

 this next bit is really hard to master
e------------------------------|
b-12p10-----12p10----12p10-----|
g-------14--------14-------14--|
d------------------------------|repeat as needed
a------------------------------|
e------------------------------|


e-------------------------------------12^-12^-17------|
b----------------------------------12-----------------|
g----9----10----11-----12-----------------------------|
d----9----10----11-----12-----------------------------|
a--7----8-----9-----10-----11-------------------------|
e-----------------------------------------------------|


e------------------12-12----12----12----12----12----12|
b-----12--------12-------12----12----12----12----12---|
g-14----14-12-----------------------------------------|
d-----------------------------------------------------|
a-----------------------------------------------------|
e-----------------------------------------------------|


e-----------------------------------------------|
b-----------------------------------------------|
g---9-9----9----9-9---9-------9^-7--------------|
d---9-9----9----9-9---9------------9-7----------|
a-7------7----7-----7------------------9-8-7-7--|
e-----------------------------------------------|

pause

  E
e-----------------------|
b-----------------------|
g-----------------------|
d-2-2-2-2-2-2-2-2-2-----|
a-2-2-2-2-2-2-2-2-2-----|
e-0-0-0-0-0-0-0-0-0-ect-| repeat unpalm muted
  /palm muted.....\


Riff


Outro:
                               E
e---------------------------------|
b---------------------------------|
g------------------------------9--|
d--9-9-7--7-9-9p7--------------9--|
a-----------------9--7-7~-7~---7--|
e---------------------------------|

email or Icq me (67053832) if you find any
corrections for the solo.
Related for Rip It Up tab