Guitaretab - guitar tabs
Song name
# A B C D E F G H I J K L M N O P Q R S T U V W X Y Z

The Living End - Stay Away From Me tab

-The Living End-
                                      Stay Away From Me
                                     Tabbed by Mick Fryar
                                     manumick20@yahoo.com

Intro:

e--------------------------------------------------------------------------|
b--------------------------------------------------------------------------|
g-----4--5--7-8-9------------------4-----4-------5-----5-------7-----------|
d--2--4--5--7-8-9----2-----2-------4-----4-4~----5-----5-5~----7-7----7----|
a--2--2--3--5-6-7----2-----2-2~----2--5--2----5--3--6--3----3--5---6-------|
e--0-----------------0--3--0----3------------------------------------------|

e------------------------------------------------------|
b------------------------------------------------------|
g---------------4-----4-------5-----5-------7----------|
d-2-----2-------4-----4-4~----5-----5-5~----7-7---7----|
a-2-----2-2~----2--5--2----5--3--6--3----3--5---6------|
e-0--3--0----3-----------------------------------------|


e------------------------------------------------------|
b------------------------------------------------------|
g---------------4-----4-------5-----5-------7----------|
d-2-----2-------4-----4-4~----5-----5-5~----7-7---7----|
a-2-----2-2~----2--5--2----5--3--6--3----3--5---6------|
e-0--3--0----3-----------------------------------------|


e------------------------------------------------------|
b------------------------------------------------------|
g---------------4-----4-------5-----5-------7-7---7-7--|
d-2-----2-------4-----4-4~----5-----5-5~----7----7-----|
a-2-----2-2~----2--5--2----5--3--6--3----3--5---5------|
e-0--3--0----3-----------------------------------------|

e----------------------------------------------------------------------------------------------|
b----------------------------------------------------------------------------------------------|
g-9--9--------9--------------9--9---------9---------9--9-------9--7-7--9--9-------9-7-7-8-8----|
d-9------9---9--9---9p7------9--------9--9----------9------9--9---7-7--9------9--9--7-7-8-8----|
a-7----7----7-----------9p7--7-----7----7---7-6-5---7----7---7----5-5--7----7---7---5-5-6-6----|
e----------------------------------------------------------------------------------------------|

e-----------------------------------------|
b-----------------------------------------|
g-12-12-12-12-12-12-12-12-12-12-12-12-12--|
d-12-12-12-12-12-12-12-12-12-12-12-12-12--|
a-10-10-10-10-10-10-10-10-10-10-10-10-10--|
e-----------------------------------------|

e------------------------------------------------------|
b------------------------------------------------------|
g---------------4-----4-------5-----5-------7----------|
d-2-----2-------4-----4-4~----5-----5-5~----7-7---7----|
a-2-----2-2~----2--5--2----5--3--6--3----3--5---6------|
e-0--3--0----3-----------------------------------------|


e------------------------------------------------------|
b------------------------------------------------------|
g---------------4-----4-------5-----5-------7----------|
d-2-----2-------4-----4-4~----5-----5-5~----7-7---7----|
a-2-----2-2~----2--5--2----5--3--6--3----3--5---6------|
e-0--3--0----3-----------------------------------------|
[ Tab from: http://www.guitaretab.com/t/the-living-end/166363.html ]
e------------------------------------------------------|
b------------------------------------------------------|
g---------------4-----4-------5-----5-------7-7---7-7--|
d-2-----2-------4-----4-4~----5-----5-5~----7----7-----|
a-2-----2-2~----2--5--2----5--3--6--3----3--5---5------|
e-0--3--0----3-----------------------------------------|

e------------------------------------------------------|
b------------------------------------------------------|
g---------------4-----4-------5-----5-------7-7---7-7--|
d-2-----2-------4-----4-4~----5-----5-5~----7----7-----|
a-2-----2-2~----2--5--2----5--3--6--3----3--5---5------|
e-0--3--0----3-----------------------------------------|

e----------------------------|
b-9-7-6-7-6-7--9-7-6-7-6-7---|
g-9-7-6-7-6-7--9-7-6-7-6-7---|
d-9-7-6-7-6-7--9-7-6-7-6-7---|
a-7-5-4-5-4-5--7-5-4-5-4-5---|
e----------------------------|

e----------------------------|
b-9-7-6-7-6-7--9-7-6-7-6-7---|
g-9-7-6-7-6-7--9-7-6-7-6-7---|
d-9-7-6-7-6-7--9-7-6-7-6-7---|
a-7-5-4-5-4-5--7-5-4-5-4-5---|
e----------------------------|

e-------------------------------------|
b-------------------------------------|
g-9-9-9-6-7-7-7-7--9-9-9-6-7-7-7-7----|
d-9-9-9-6-7-7-7-7--9-9-9-6-7-7-7-7----|
a-7-7-7-4-5-5-5-5--7-7-7-4-5-5-5-5----|
e-------------------------------------|

e-------------------------------------|
b-------------------------------------|
g-9-9-9-6-7-7-7-7--9-9-9-6-7-7-7-7----|
d-9-9-9-6-7-7-7-7--9-9-9-6-7-7-7-7----|
a-7-7-7-4-5-5-5-5--7-7-7-4-5-5-5-5----|
e-------------------------------------|

Verse:  E - D - E - D -
        G - E - G - E   (x2)

Pre Chorus:  B-G-B (as many times as needed.)

Chorus: A - G (a couple of times)


(can be heard faintly after chorus)
e--12p0-10p0-9p0-7p0-5p0-4p0-2p0-0-|
b----------------------------------|
g----------------------------------|
d----------------------------------|
a----------------------------------|
e----------------------------------|


Then:
e----------------------------|
b-9-7-6-7-6-7--9-7-6-7-6-7---|
g-9-7-6-7-6-7--9-7-6-7-6-7---|
d-9-7-6-7-6-7--9-7-6-7-6-7---| (x2)
a-7-5-4-5-4-5--7-5-4-5-4-5---|
e----------------------------|

Verse

Pre Chorus

Chorus

Then,
e----------------------------|
b-9-7-6-7-6-7--9-7-6-7-6-7---|
g-9-7-6-7-6-7--9-7-6-7-6-7---|
d-9-7-6-7-6-7--9-7-6-7-6-7---| (x2)
a-7-5-4-5-4-5--7-5-4-5-4-5---|
e----------------------------|

Pause for bass

Solo 1:
e----:----------------------|
b----:----------------------|
g----:----------------------|
d-3~~:----------------------|
a----:-----------------7----|
e----:-0-0-3-0-5-0-6-7------| (x4 last section)

e----------------------|
b----------------------|
g----------------------|
d-----------------7----|
a-0-0-3-0-5-0-6-7------|
e----------------------|(x4)

e----------------------------|
b-9-7-6-7-6-7--9-7-6-7-6-7---|
g-9-7-6-7-6-7--9-7-6-7-6-7---|
d-9-7-6-7-6-7--9-7-6-7-6-7---| (x2)
a-7-5-4-5-4-5--7-5-4-5-4-5---|
e----------------------------|

Then Guitar solo 2:over verse (good luck)

Pre Chorus

Chorus

Outro:
e----------------------------|
b-9-7-6-7-6-7--9-7-6-7-6-7---|
g-9-7-6-7-6-7--9-7-6-7-6-7---|
d-9-7-6-7-6-7--9-7-6-7-6-7---| (x2)
a-7-5-4-5-4-5--7-5-4-5-4-5---|
e----------------------------|

e--------------------------:-----:-------|
b--------------------------:-----:-------|
g-9-7-6-7-6-7--9-7-6-7-6-5-:--9--:--9-9--|
d-9-7-6-7-6-7--9-7-6-7-6-7-:--9--:--9-9--|
a-7-5-4-5-4-5--7-5-4-5-4-5-:--7--:--7-7--|
e--------------------------:-------------|


Tabbed by Michael Fryar,  manumick20@yahoo.com
Related for Stay Away From Me tab