Guitaretab - guitar tabs
Song name
# A B C D E F G H I J K L M N O P Q R S T U V W X Y Z

The Living End - Kid tab

KID TAB

Intro:
Guitar 1:
E--0---0--0--0--|
B--10--9--7--5--|
G--9---9--7--6--|
D---------------|
A---------------|
E---------------| *Strum each triad as many times need. Repeat 4 times*

Guitar 2:
E--9~-----|
B--10~----|
G--9~-----|
D--11~----|
A---------|
E---------| *Strum For Duration of Intro*

There is a bell on the intro hitting the notes of:
C#, B, D, C# 
C#, B, D, E
C#, B, D, C# 
C#, B, D, E

Verse 1:
Just Guitar and Vocal-
Guitar 2:
E--9---9------10--10--9---|
B--10--9------10--10--10--|
G--9---9------11--10--9---|
D--11--11-x2--12--12--11--|
A-------------------------|
E-------------------------| *Strum As Many Times As Needed* 

Keep it up, keep it up ,Youíre going to kill the kid
Soon enough, soon enough Heís gonna flip the lid
Will you be happy then? Wearing a satisfied grin

Verse 2: *Just Use Full Barre Chords*

A............................................C#m
Take it out, take it out, take it all out on him
A............................................C#m
Take away his heart, drain all the life within
D...................Dm........................A
Will you be happy then? Wearing a satisfied grin

Bridge:
Bm......................................... E
You wear your heart on your sleeve
Bm..........................E
Living your life in a dream
Bm.....................................E
Believe what you want to believe
E
And I thought this was supposed to be fun...

Verse 3:
A................................................C #m
Keep it up, keep it up ,Youíre going to kill the kid
A.............................................C#m
Soon enough, soon enough Heís gonna flip the lid
D......................Dm.....................A
Will you be happy then? Wearing a satisfied grin

Pre-Solo:
Guitar 1:
E--0---0--0--0--|
B--10--9--7--5--|
G--9---9--7--6--|
D---------------|
A---------------|
E---------------| *Strum each triad as many times need. Repeat 4 times*

Guitar 2:
E--9~-----|
B--10~----|
G--9~-----|
D--11~----|
A---------|
E---------| *Strum For Duration of Pre-Solo*

Solo:
E-----------------0-0-0-----4!----------|
B--(5)----(5)-----5-3-2-0---5!----------|
G---6-4-6--6-4-6--------4s6-6!-----2----|
D---------------------------------2-2---|
A-0~---------------------------0h4---4--|
E---------------------------------------|
!= give the bigsby a wobble
[ Tab from: http://www.guitaretab.com/t/the-living-end/171268.html ]
E------------------12-10-9----9-9!-----------------|
B--(5)----(5)--------------12---9!-----------------|
G---6-4-6--6-4-6-----------9----9!--9h11p9---------|
D--------------------------11---11!--------11p9p7--|
A-0~-----------------------------------------------|
E--------------------------------------------------|
!= give the bigsby a wobble

E----0-0-0-------0-0-0--------0-----|
B----5-3-2-0-----5-3-2-0-----3-3----|
G----------4-2-2-------4-2--2-------|
D-0~-----------------------3--------|
A-----------------------------------|
E-----------------------------------|

E-----9----7----9----7----9----7----9--|
B------10---10---10---10---10---10-----|
G--------9----9----9----9----9----9----|
D--------------------------------------|
A-0~-----------------------------------|
E--------------------------------------|

Chords Behind The Solo Are:
A, C#m, A, C#m, D, DM, A

Bridge:
Bm..........................................E
You wear your heart on your sleeve
Bm.............................E
You live your life in a dream
Bm....................................E
Believe what you want to believe
........Cmaj7.............................Bm
After all that weíve been through now
Cmaj7.......................Bm
Still so much to do now
E
With you now

Verse 4:

A................................................. . ........C#m
That kidís not right Thereís something wrong with him
A..............................................C#m
Wound up too tight Keeping it all within yeah
D...........................................Dm
Donít let them see your fear Stand up and wipe away the tears
A................................................. . ........C#m
Keep it up, keep it up ,Youíre going to kill the kid
A................................................. . ...........C#m


Soon enough, soon enough Heís gonna flip the lid
D.....................................Dm.......... .......................A
Will you be happy then? Wearing a satisfied grin

Outtro:

Guitar 1:
E--0---0--0--0--|
B--10--9--7--5--|
G--9---9--7--6--|
D---------------|
A---------------|
E---------------| *Strum each triad as many times need. Repeat 2 times*

Guitar 1:
E--0---0--0--0--0--0---12---------|
B--10--9--7--5--7--6---12---------|
G--9---9--7--6--7--7---x----------|
D----------------------11---------|
A----------------------12---------|
E---------------------------------| *Strum each triad as many times need.*
Related for Kid tab