Song name
# A B C D E F G H I J K L M N O P Q R S T U V W X Y Z

The Living End - 21st Century tab

The Living End
White Noise
21st Century

im not 100% sure this is right, there are definitely some parts where cheney does some 
crazy fills but i'm not that good to work it out.
Better guitarists than I, feel free to build on it.

Tabbed by: Matthew Mostovac

E|--------------------------------------------------------------------|
B|--------------------------------------------------------------------|
G|--15-15-15-14-12~----15-15-15-14-12-11~-----------------------------|
D|--------------------------------------------------------------------|
A|--------------------------------------------------------------------|
E|--------------------------------------------------------------------|

e|--------------------------------------------------------------------|
B|--------------------------------------------------------------------|
G|--11-12--12-14--14-15--12-15-17-17/19--15-15-12---------------------|
D|--------------------------------------------------------------------|
A|--------------------------------------------------------------------|
E|--------------------------------------------------------------------|

e|---------------------------------------------------/15-17-----------|
B|-16-16-18-16-15------16-18-16-15------16-18-16-15--/15-15-----------|
G|----------------17---------------17---------------------------------|
D|--------------------------------------------------------------------|
A|--------------------------------------------------------------------|
E|--------------------------------------------------------------------|

e|-15h18p15-15h18p15-15h18p15-15h18p15-15h17p15-15h17p15-15h17p15-15h17p15-17--|
B|-15-15-15-15-15-15-15-15-15-15-15-15-15-15-15-15-15-15-15-15-15-15-15-15-15--|
G|-----------------------------------------------------------------------------|
D|-----------------------------------------------------------------------------|
A|-----------------------------------------------------------------------------|
E|-----------------------------------------------------------------------------|


| /  slide up
| \  slide down
| h  hammer-on
| p  pull-off
| ~  vibrato
| +  harmonic
| x  Mute note
Tap to rate this tab
 
# A B C D E F G H I J K L M N O P Q R S T U V W X Y Z