Song name
# A B C D E F G H I J K L M N O P Q R S T U V W X Y Z

The Living End - 21st Century tab

|-------------------------------------------------------------------------------
			     21st century - The living End
-------------------------------------------------------------------------------
Tabbed by: ZZZ

Email: Michael_6_9_9@hotmail.com

This is my very first tab so go easy :P this is how i think the solo and part 
leading up to it are played.


Tuning: E A D G B E 
              PM                                PM
   |----------------------|          |----------------------|
e|---------------------------------------------------------------------------|
B|---------------------------------------------------------------------------|
G|--8--0--8--0--8--0--8--0------------8--0--8--0--8--0--8--0-----------------|
D|---------------------------55555555---------------------------555--555-----|
A|---------------------------55555555---------------------------555--555-----|
E|---------------------------33333333---------------------------333--333-----|

e|---------------------------------------------------------------------------|
B|---------------------------------------------------------------------------|
G|---5----7----8----9----88888888-----------15~--15-15-14-12---11-15-14-12-11|
D|--55----7----8----9----88888888--------------------------------------------|
A|--53----5----6----8----66666666--------------------------------------------|
E|--3--------------------------------12\-------------------------------------|

e|---------------------------------------------------------------------------|
B|---------------------------------------------------------------------------|
G|--11---11-12---12-14---14-15---15-17---12-14-15-17/19---19-17--12----------|
D|---------------------------------------------------------------------------|
A|---------------------------------------------------------------------------|
E|---------------------------------------------------------------------------|

e|---------------------------------------------------------------------------|
B|-----16-16-18-16-15----16-18-16-15----16-18-16-12-15-----------------------|
G|--17----------------17-------------17--------------------------------------|
D|---------------------------------------------------------------------------|
A|---------------------------------------------------------------------------|
E|---------------------------------------------------------------------------|

e|---------------------------------------------------------------------------|
B|--16-12-16-12-16-12-16-12-16-12-16-12-15-12-15-12-15-12-15-12-15-12-15~----|
G|---------------------------------------------------------------------------|
D|---------------------------------------------------------------------------|
A|---------------------------------------------------------------------------|
E|---------------------------------------------------------------------------|



| /  slide up
| \  slide down
| h  hammer-on
| p  pull-off
| ~  vibrato
| +  harmonic
| x  Mute note
| PM Palm Muting
Tap to rate this tab
# A B C D E F G H I J K L M N O P Q R S T U V W X Y Z