Song name
# A B C D E F G H I J K L M N O P Q R S T U V W X Y Z

The Living End - Leilani tab

Leilani - The Living End
Tabbed by: Matt Heal
Email: mattheal(@)gmail.com

Great cover of a hoodoo gurus song on the tribute album "Stoneage Cameos"

verse
e|--4----4--2--4--|
b|--4----4--2--4--|
g|--4----4--2--4--|
d|--6----6--4--6--|
a|--6----6--4--6--|
E|--4----4--2--4--|

chorus
e|------------------------------|
b|------------------------------|
g|---8-6------1-3-3b(4)3--3-----|
d|-6-8-6--1-3-------------3--6--|
a|-6-6-4------------------1--6--|
E|-4-------------------------4--|

pre verse

e|----------------------------------------------|
b|----------------------------------------------|
g|----------------------------------------------|
d|----------------------------------------------| x 2
a|----------------------------------44444-22222-|
E|-4444444444-2222222222-0000000000-------------|

Verse
e|--4----4--2--4--|
b|--4----4--2--4--|
g|--4----4--2--4--|
d|--6----6--4--6--| As needed
a|--6----6--4--6--|
E|--4----4--2--4--|

pre verse

e|----------------------------------------------|
b|----------------------------------------------|
g|----------------------------------------------|
d|----------------------------------------------| x 2
a|----------------------------------44444-22222-|
E|-4444444444-2222222222-0000000000-------------|

Bridge parts:

first part, bigsby the shite out of this chord as needed
e|---4~~--|
b|---4~~--|
g|---4~~--|
d|---6~~--|
a|---6~~--|
E|---4~~--|

2nd bit, hard up strokes on the first chords, then slow and let ring on the E major
e|--4--4---0---|
b|--4--4---0---|
g|--4--4---1---|
d|--6--6---2---| as needed
a|--6--6---2---|
E|--4--4---0---|

3rd bit (hey!)
e|--------------------------|
b|--------------------------|
g|-4-----1------------------|
d|-4--4--2------------------| as needed
a|-2--4--2-------2-2-2h4p2--|
E|----2--0--0h2h4-----------|

4th bit
e|-5--4-------4~~-|
b|-5--4-------4~~-|
g|-7--4-------4~~-|
d|-6--6-------6~~-|
a|-6--6-------6~~-|
E|-5--4-------4~~-|

Verse
e|--4----4--2--4--|
b|--4----4--2--4--|
g|--4----4--2--4--|
d|--6----6--4--6--| As needed
a|--6----6--4--6--|
E|--4----4--2--4--|

chorus
e|------------------------------|
b|------------------------------|
g|---8-6------1-3-3b(4)3--3-----|
d|-6-8-6--1-3-------------3--6--|
a|-6-6-4------------------1--6--|
E|-4-------------------------4--|
Tap to rate this tab
 
# A B C D E F G H I J K L M N O P Q R S T U V W X Y Z