Song name
# A B C D E F G H I J K L M N O P Q R S T U V W X Y Z

The Living End - What Would You Do chords

Highlighted       Show chord diagrams
What Would You Do Lyrics
The Living End

Here's an acoustic version of The Living End's What Would You Do?


Verse:

D
I don't know enough about the things you do

I don't know enough to say I really know you
    G                         Em
but I really fell in love with you
           G
and if you knew
    A          D
what would you do?


D
i can tell a lot by the things you wear

i can tell you're gonna be a millionaire
     G                         Em
but i really fell in love with you
           G
and if you knew
     A         D
what would you do?


Chorus:

Em              A               D                 Bm
i've stopped myself from trying i shoulda talk to you
 Em       A        
and now inside i'm dying
G     A         D
what would you do?


Verse:
D
I don't know enough about the things you do

I don't know enough to say I really know you
    G                         Em
but I really fell in love with you
           G
and if you knew
    A          D
what would you do?

alright


Solo:

|-----------------|-------------|-----------------|-------------|
|-2-3-3-2-0-0-----|-0-0---------|-2-3-3-2-0-0-----|-0-0---------| 
|-------------2-2-|-----2-2-----|-------------2-2-|-----2-2-----|
|-----------------|---------0~--|-----------------|---------0~--|
|-----------------|-------------|-----------------|-------------|
|-----------------|-------------|-----------------|-------------|

|-----3------3-----|--------0~-----|-------------------|-------------10|
|-----3------3-----|--------0~-----|-------------------|--------5/10---|   
|------------------|--------0~-----|-------------------|---------------|   
|-5---5--5---5--5--|------2--------|-------------------|---------------|
|-5---5--5---5--5--|----0----------|------2-5-----4-7--|--5-(7)--------|
|-3---3--3---3--3--|--0------------|--3-------5--------|---------------|



Chorus:

Em              A               D                 Bm
i've stopped myself from trying i shoulda talk to you
 Em       A        
and now inside i'm dying
G     A         D
what would you do?


D
I don't know enough about the things you do

I don't know enough to say I really know you
    G                         Em
but I really fell in love with you
           G
and if you knew
    A          D
what would you do?
G    A         D 
what would you do?
G    A         D 
what would you do?
G    A         Em
what would you do?

Tap to rate this tab
# A B C D E F G H I J K L M N O P Q R S T U V W X Y Z