Song name
# A B C D E F G H I J K L M N O P Q R S T U V W X Y Z

The Living End - Second Solution tab

Song: Second Solution.
Band: The Living End.
Album: The Living End.
Tabbed by: Skater901, solo tab by Galvanise69.
Tuning: Standard EADGBE.


Ok, reasonably simple song except for the solo, which was tabbed by Galvanise69, 
cheers dude! Couldn't have done it with-out you. Now, to the song.


Legend:
/=slide up.
\=slide down.
h=hammer-on.
p=pull-off.
^=bend. (Choose your own direction)
/-\=palm-mute.


Intro:
   Bm
E|-------2-2-|
B|------3--3-|
G|-4---4---4-|
D|-4--4------| x7
A|-2-2-------|
E|-----------|

   B5
E|---------------|
B|---------------|
G|-4---4---4---4-|
D|-4---4---4---4-|
A|-2---2---2---2-|
E|---------------|

OY!!

   B5  B5 F#5  F#5 G5  G5  C5  C5
E|-------------------------------|
B|-------------------------------|
G|-4---4-------------------5---5-|
D|-4---4---4---4---5---5---5---5-| x3
A|-2---2---4---4---5---5---3---3-|
E|---------2---2---3---3---------|


   B5  B5  F#5 F#5 G5  G5  C5  C5
E|---------------------------------|
B|---------------------------------|
G|-4---4-------------------5-5-5-5-|
D|-4---4---4---4---5---5---5-5-5-5-|
A|-2---2---4---4---5---5---3-3-3-3-|
E|---------2---2---3---3-----------|


Verse:
   B5  B5  B5  B5  B5  B5  C5  F#5
E|--------------------------------|
B|--------------------------------|
G|-4-------------------4---5------|
D|-4---4---4---4---4---4---5---4--| x3
A|-2---2---2---2---2---2---3---4--|
E|-----------------------------2--|
      /-------------\

   B5  A5  G5  F#5 G5  A5  B5  B5
E|-------------------------------|
B|-------------------------------|
G|-------------------------------|
D|-9---7---5---4---5---7---9---9-|
A|-9---7---5---4---5---7---9---9-|
E|-7---5---3---2---3---5---7---7-|

   Fmaj7
E|-----2-|
B|-----2-|
G|-----3-|
D|-2-----| x8
A|-4-----|
E|-2-----|


Chorus:
   Bm      Bm      Bm      Bm      Em      Em      Em      Em
E|-----2-------2-------2-------2-------7-------7-------7-------7-|
B|-----3-------3-------3-------3-------8-------8-------8-------8-|
G|-----4-------4-------4-------4-------9-------9-------9-------9-|
D|-4-------4-------4-------4-------9-------9-------9-------9-----|
A|-2-------2-------2-------2-------7-------7-------7-------7-----|
E|---------------------------------------------------------------|

   Bm      Bm      Bm      Bm      F#      F#      F#      F#
E|-----2-------2-------2-------2-------2-------2-------2-------2-|
B|-----3-------3-------3-------3-------2-------2-------2-------2-|
G|-----4-------4-------4-------4-------3-------3-------3-------3-|
D|-4-------4-------4-------4-------4-------4-------4-------4-----|
A|-2-------2-------2-------2-------4-------4-------4-------4-----|
E|---------------------------------2-------2-------2-------2-----|


   Bm      Bm      Bm      Bm      Em      Em      G       G       F#      F#
E|-----2-------2-------2-------2-------7-------7-------3-------3-------2-------2-|
B|-----3-------3-------3-------3-------8-------8-------3-------3-------2-------2-|
G|-----4-------4-------4-------4-------9-------9-------4-------4-------3-------3-|
D|-4-------4-------4-------4-------9-------9-------5-------5-------4-------4-----|
A|-2-------2-------2-------2-------7-------7-------5-------5-------4-------4-----|
E|-------------------------------------------------3-------3-------2-------2-----|


Post chorus:
   Bm
E|-------2-2-|
B|------3--3-|
G|-4---4---4-|
D|-4--4------| x3
A|-2-2-------|
E|-----------|

   B5
E|---------------|
B|---------------|
G|-4---4---4---4-|
D|-4---4---4---4-|
A|-2---2---2---2-|
E|---------------|


Verse:
   B5  B5  B5  B5  B5  B5  C5  F#5
E|--------------------------------|
B|--------------------------------|
G|-4-------------------4---5------|
D|-4---4---4---4---4---4---5---4--| x3
A|-2---2---2---2---2---2---3---4--|
E|-----------------------------2--|
      /-------------\

   B5  A5  G5  F#5 G5  A5  B5  B5
E|-------------------------------|
B|-------------------------------|
G|-------------------------------|
D|-9---7---5---4---5---7---9---9-|
A|-9---7---5---4---5---7---9---9-|
E|-7---5---3---2---3---5---7---7-|

   Fmaj7
E|-----2-|
B|-----2-|
G|-----3-|
D|-2-----| x8
A|-4-----|
E|-2-----|


Chorus:
   Bm      Bm      Bm      Bm      Em      Em      Em      Em
E|-----2-------2-------2-------2-------7-------7-------7-------7-|
B|-----3-------3-------3-------3-------8-------8-------8-------8-|
G|-----4-------4-------4-------4-------9-------9-------9-------9-|
D|-4-------4-------4-------4-------9-------9-------9-------9-----|
A|-2-------2-------2-------2-------7-------7-------7-------7-----|
E|---------------------------------------------------------------|

   Bm      Bm      Bm      Bm      F#      F#      F#      F#
E|-----2-------2-------2-------2-------2-------2-------2-------2-|
B|-----3-------3-------3-------3-------2-------2-------2-------2-|
G|-----4-------4-------4-------4-------3-------3-------3-------3-|
D|-4-------4-------4-------4-------4-------4-------4-------4-----|
A|-2-------2-------2-------2-------4-------4-------4-------4-----|
E|---------------------------------2-------2-------2-------2-----|


   Bm      Bm      Bm      Bm      Em      Em      G       G       F#      F#
E|-----2-------2-------2-------2-------7-------7-------3-------3-------2-------2-|
B|-----3-------3-------3-------3-------8-------8-------3-------3-------2-------2-|
G|-----4-------4-------4-------4-------9-------9-------4-------4-------3-------3-|
D|-4-------4-------4-------4-------9-------9-------5-------5-------4-------4-----|
A|-2-------2-------2-------2-------7-------7-------5-------5-------4-------4-----|
E|-------------------------------------------------3-------3-------2-------2-----|


Pre-solo:
   B
E|-----7-|
B|-----7-|
G|-------|
D|-9-----| x4
A|-9-----|
E|-7-----|

   B5    A5    G5    F#5   G5    A5    B5
E|---------------------------------------|
B|---------------------------------------|
G|---------------------------------------|
D|-9-9-9-7-7-7-5-5-5-4-4-4-5-5-5-7-7-7-9-|
A|-9-9-9-7-7-7-5-5-5-4-4-4-5-5-5-7-7-7-9-|
E|-7-7-7-5-5-5-3-3-3-2-2-2-3-3-3-5-5-5-7-|


Solo:

E|---------------------7-9-7--------|
B|-----9^-9-7--------8-------10-8-7-|
G|-----9^-9-7------9----------------|
D|-7h9--------9-9-------------------|
A|----------------------------------|
E|----------------------------------|


E|--------15-14-12-7-10-7----------------------|
B|------------------------10-7-------9---------|
G|7/9-12-----------------------9-7---9-7-------|
D|---------------------------------9-----9-7-9-|
A|---------------------------------------------|
E|---------------------------------------------|


E|----------------------------------------9----|
B|-------------------------------------11------|
G|---------------------9-9-9-11-11-11-------11-|
D|-------8-8-8-11-11-11------------------------|
A|-9-9-9---------------------------------------|
E|---------------------------------------------|


E|-12-10----10---------------------------------------------------------------------
B|-------12----12-10-12-10----10---------------------------------------------------
G|-------------------------11----11-9-11-9----9------------------------------------
D|-----------------------------------------12---12-9-12-9----9---------------------
A|--------------------------------------------------------12---12-9-12-9----9------
E|-----------------------------------------------------------------------12---12-10


E|---------|
B|---------|
G|---------|
D|---------|
A|---------|
E|-12-7-10-|


E|-----10---10---10---10-|
B|-----10---10---10---10-|
G|-7---7----7----7----7--|
D|-----------------------|
A|-----------------------|
E|-----------------------|


E|-----------------------------|
B|--------------4^-------------|
G|--------------4^-------------|
D|-xxxx-4-xx-4-----xxxx-4-xx-4-|
D|-xxxx-4-xx-4-----xxxx-4-xx-4-|
E|-xxxx-2-xx-2-----xxxx-2-xx-2-|


Post-solo:
   B5  B5 F#5  F#5 G5  G5  C5  C5
E|-------------------------------|
B|-------------------------------|
G|-4---4-------------------5---5-|
D|-4---4---4---4---5---5---5---5-| x3
A|-2---2---4---4---5---5---3---3-|
E|---------2---2---3---3---------|


   B5  B5  F#5 F#5 G5  G5  C5  C5
E|---------------------------------|
B|---------------------------------|
G|-4---4-------------------5-5-5-5-|
D|-4---4---4---4---5---5---5-5-5-5-|
A|-2---2---4---4---5---5---3-3-3-3-|
E|---------2---2---3---3-----------|


Verse:
   B5  B5  B5  B5  B5  B5  C5  F#5
E|--------------------------------|
B|--------------------------------|
G|-4-------------------4---5------|
D|-4---4---4---4---4---4---5---4--| x3
A|-2---2---2---2---2---2---3---4--|
E|-----------------------------2--|
      /-------------\

   B5    A5    G5    F#5   G5    A5    B5
E|-------------------------------------------------|
B|-------------------------------------------------|
G|-------------------------------------------------|
D|-9-9-9-7-7-7-5-5-5-4-4-4-5-5-5-7-7-7-9-9-9-9-9-9-|
A|-9-9-9-7-7-7-5-5-5-4-4-4-5-5-5-7-7-7-9-9-9-9-9-9-|
E|-7-7-7-5-5-5-3-3-3-2-2-2-3-3-3-5-5-5-7-7-7-7-7-7-|

   Fmaj7
E|-2-|
B|-2-|
G|-3-|
D|-2-| x about 24 but I'm not quite sure. Just play it and listen to it.
A|-4-|
E|-2-|


Chorus:
   Bm      Bm      Bm      Bm      Em      Em      Em      Em
E|-----2-------2-------2-------2-------7-------7-------7-------7-|
B|-----3-------3-------3-------3-------8-------8-------8-------8-|
G|-----4-------4-------4-------4-------9-------9-------9-------9-|
D|-4-------4-------4-------4-------9-------9-------9-------9-----|
A|-2-------2-------2-------2-------7-------7-------7-------7-----|
E|---------------------------------------------------------------|

   Bm      Bm      Bm      Bm      F#      F#      F#      F#
E|-----2-------2-------2-------2-------2-------2-------2-------2-|
B|-----3-------3-------3-------3-------2-------2-------2-------2-|
G|-----4-------4-------4-------4-------3-------3-------3-------3-|
D|-4-------4-------4-------4-------4-------4-------4-------4-----|
A|-2-------2-------2-------2-------4-------4-------4-------4-----|
E|---------------------------------2-------2-------2-------2-----|


   Bm      Bm      Bm      Bm      Em      Em      G       G       F#      F#
E|-----2-------2-------2-------2-------7-------7-------3-------3-------2-------2-|
B|-----3-------3-------3-------3-------8-------8-------3-------3-------2-------2-|
G|-----4-------4-------4-------4-------9-------9-------4-------4-------3-------3-|
D|-4-------4-------4-------4-------9-------9-------5-------5-------4-------4-----|
A|-2-------2-------2-------2-------7-------7-------5-------5-------4-------4-----|
E|-------------------------------------------------3-------3-------2-------2-----|


Outro:
   Bm            G   F#
E|---------2-2---3---2-|
B|--------3--3---3---2-|
G|-4-----4---4---4---3-|
D|-4----4--------5---4-| x4
A|-2---2---------5---4-|
E|---------------3---2-|

   B5          G5    F#5
E|------------------------|
B|------------------------|
G|-4--4--4--4-------------|
D|-4--4--4--4--5--5--4--4-| x8
A|-2--2--2--2--5--5--4--4-|
E|-------------3--3--2--2-|

   B5    A5    G5    F#5   G5    A5    B5
E|---------------------------------------|
B|---------------------------------------|
G|---------------------------------------|
D|-9-9-9-7-7-7-5-5-5-4-4-4-5-5-5-7-7-7-9-|
A|-9-9-9-7-7-7-5-5-5-4-4-4-5-5-5-7-7-7-9-|
E|-7-7-7-5-5-5-3-3-3-2-2-2-3-3-3-5-5-5-7-|


Whew, mammoth task. Now for some lyrics, not entirely accurate.

Lyrics:
OY!!

Verse 1:
Standin' on a street light tryin' to get away.
Guilty guilty hear what I say.
Countin' down the hours but I haven't got the time.
23rd precinct jumping on the line on the line.

Chorus:And what I wanna know,
Is will I get Death Row?
Or is there a second solution?
And what I wanna say,
Is will I die today?
Or will I get second solution?

Verse 2:
It was never meant to end this way.
One shot violence I hear what ya say.
Standin' on a streetlight tryin' to get away.
Guilty Guilty hear what I say What I say.

Chorus:And what I wanna know,
Is will I get Death Row?
Or is there a second solution?
And what I wanna say,
Is will I die today?
Or will I get second solution?

Verse 3:
Standin' on a streetlight tryin' to get away.
Guilty Guilty hear what I say.
Countin' down the hours but I haven't got the time.
23rd precinct jumping on the line on the line.

Chorus:
And what I wanna know,
Is will I get Death Row?
Or is there a second solution?
And what I wanna say,Is will I die today?
Or will I get,

Outro:
Second, Solution.
Second, Solution.
Second, Solution.
Second, solution.
Second, (Solution).
Second, (Solution).
Second, (Solution).
Second, (Solution).
Second, (Solution).
Second, (Solution).
Second, (Solution).

And done! Whew. Enjoy guys, here's a hopefully 100% accurate tab for a damn good band.
Tap to rate this tab
# A B C D E F G H I J K L M N O P Q R S T U V W X Y Z