Song name
# A B C D E F G H I J K L M N O P Q R S T U V W X Y Z

The Living End - Listen Up Suzy tab

-------------------------------------------------------------------------------
			     Listen up Suzy - The Living End
-------------------------------------------------------------------------------
Tabbed by: Shimmy
Email:michael_shim@hotmail.com

Hi this is my 2nd tab =] This song can be played with 2 guitars.
It's probably not the way Chris playes it but it sounds close.
I've Broken up the parts so it's easier to play... hopefully
the Bridge was difficult for me to tab out.
Enjoy

Tuning: Standard

VERSE:

   "Listen Up suzy..."
    C
e|-------------------|------------------|
B|-------------------|------------------|
G|-------------------|------------------|
D|--5-5-7-5-8-5-7-5--|--5-5-5-7-5-5-5---| REPEAT WHOLE THING AGAIN
A|--3-3-3-3-3-3-3-3--|--3-7-3-3-3-7-3---|
E|-------------------|------------------|

  "Make it up to you..."
    G
e|-------------------|-------------------------------|
B|-------------------|-------------------------------|
G|-------------------|-------------------------------|
D|-------------------|-------------------------------|
A|--5-5-7-5-8-5-7-5--|--5-5-7-5-8-5-7-5-5-7-5-8-7-5--|
E|--3-3-3-3-3-3-3-3--|--3-3-3-3-3-3-3-3-3-3-3-3-3-3--|

PRECHORUS:

  "she Said no no not this time...  
   
e|---6--1--5--3--1------------------|-----------------------------|-------|
B|---6--1--5--3--1------------------|-----------------------------|-------|
G|---7--2--5--4--2--5---------------|-----------------------------|-------|
D|---8--3--7--5--3--5-5-7-5-8-5-7-5-|-5-5-7-5-8-5-7-5-5-7-5-8-7-5-|-------| REPEAT TO VERSE
A|---8--3--7--5--3--3-3-3-3-3-3-3-3-|-3-3-3-3-3-3-3-3-3-3-3-3-3-3-|-------| once more
E|---6--1--5--3--1------------------|-----------------------------|-0-1-2-|

Chorus:

  "Well, Come on! Come on! Give me a Chance, You'll See"
e|-------------------------------------------|
B|-------------------------------------------|
G|-------------------------------------------|
D|--5-5-7-5-8-5-7-5-5-7-5-8-7-5--------------|
A|--3-3-3-3-3-3-3-3-3-3-3-3-3-3--------------|
E|-------------------------------------------|

 " Come Onnnn! Come on! Don't Make me get on my knees..."
    A                G                F       G        A                F       G
e|--5-5-5-5-5-5-5-5--3-3-3-3-3-3-3-3--1-1-1-1-3-3-3-3--5-5-5-5-5-5-5-5--1-1-1-1-3-3-3-3-
B|--5-5-5-5-5-5-5-5--3-3-3-3-3-3-3-3--1-1-1-1-3-3-3-3--5-5-5-5-5-5-5-5--1-1-1-1-3-3-3-3-
G|--5-5-5-5-5-5-5-5--4-4-4-4-4-4-4-4--2-2-2-2-4-4-4-4--5-5-5-5-5-5-5-5--2-2-2-2-4-4-4-4-
D|--7-7-7-7-7-7-7-7--5-5-5-5-5-5-5-5--3-3-3-3-5-5-5-5--7-7-7-7-7-7-7-7--3-3-3-3-5-5-5-5-
A|--7-7-7-7-7-7-7-7--5-5-5-5-5-5-5-5--3-3-3-3-5-5-5-5--7-7-7-7-7-7-7-7--3-3-3-3-5-5-5-5-
E|--5-5-5-5-5-5-5-5--3-3-3-3-3-3-3-3--1-1-1-1-3-3-3-3--5-5-5-5-5-5-5-5--1-1-1-1-3-3-3-3-

------------------|
------------------|
------------------|
-5-5-7-5-8-5-7-5--|
-3-3-3-3-3-3-3-3--|
------------------|

Solo:
This is the bit im Not 100% sure but it still sounds alright
e|------------------------------------------------|
B|--/5-5-5-5-5-5-5-5-3-----/5-5-5-5-5-5-5-5-3-----|
G|---------------------5---------------5----------|
D|------------------------------------------------|
A|------------------------------------------------|
E|------------------------------------------------|

e|-------------------------------------/3-3-3-3-/3-3-3-3-------/3----|
B|--13-13-10----10----10---------------/3-3-3-3-/3-3-3-3-------/3----|
G|-----------12----12----12-9----------------------------4-2---------|
D|----------------------------10-----------------------------5-------|
A|-------------------------------------------------------------------|
E|-------------------------------3-3-3-------------------------------|

e|---------------------------------------------8-------|
B|--/4b-4pb-4pb-3--4p-3-------/5-5-5-5-5-3-------8-----|
G|---------------5-----5-------------------5-----------|
D|-----------------------3-----------------------------|
A|-----------------------------------------------------|
E|-------------------------------------------0---------|

e|------------14b-14pb-12---------------------------|
B|--5-5-3-----------------13--5-5-5-5-5-5-5-5-------|
G|--------5-------------------5-5-5-5-5-5-5-5-------|
D|----------------------------5-5-5-5-5-5-5-5-------|
A|----------------------------3-3-3-3-3-3-3-3-------|
E|--------------------------------------------------|

Bridge:
  "Well listen suzy Can't you see?"
e|---8--8--8--8--8--8--8--8------|
B|---8--8--8--8--8--8--8--8------|
G|---9--9--9--9--9--9--9--9------|  Strum Really Fast
D|---10-10-10-10-10-10-10-10-----| 
A|---10-10-10-10-10-10-10-10-----|
E|---8--8--8--8--8--8--8--8------|

             "You mean Every thing to me"
e|----------------------------------|
B|----------------------------------|
G|-5-5-7-5-5-5-7-5-5-5-7-5-5-5-7-5--|
D|-5-5-5-5-5-5-5-5-5-5-5-5-5-5-5-5--|
A|-3-3-3-3-3-3-3-3-3-3-3-3-3-3-3-3--|
E|----------------------------------|

      "Why are you Trying to break my heart"
                                  A                G               
e|--------------------------------5-5-5-5-5-5-5-5--3-3-3-3-3-3-3-3-|
B|--------------------------------5-5-5-5-5-5-5-5--3-3-3-3-3-3-3-3-|
G|--------------------------------5-5-5-5-5-5-5-5--4-4-4-4-4-4-4-4-|
D|--5-5-7-5-8-5-7-5-5-7-5-8-7-5---7-7-7-7-7-7-7-7--5-5-5-5-5-5-5-5-|
A|--3-3-3-3-3-3-3-3-3-3-3-3-3-3---7-7-7-7-7-7-7-7--5-5-5-5-5-5-5-5-|
E|--------------------------------5-5-5-5-5-5-5-5--3-3-3-3-3-3-3-3-|

 "And if you don't wanna stay"
e|---8--8--8--8--8--8--8--8------|
B|---8--8--8--8--8--8--8--8------|
G|---9--9--9--9--9--9--9--9------|
D|---10-10-10-10-10-10-10-10-----|
A|---10-10-10-10-10-10-10-10-----|
E|---8--8--8--8--8--8--8--8------|

             "I'll never let you get away"
e|----------------------------------|------------------------------|
B|----------------------------------|------------------------------|
G|-5-5-7-5-5-5-7-5-5-5-7-5-5-5-7-5--|------------------------------|
D|-5-5-5-5-5-5-5-5-5-5-5-5-5-5-5-5--|-5-5-7-5-8-5-7-5-5-7-5-8-7-5--|
A|-3-3-3-3-3-3-3-3-3-3-3-3-3-3-3-3--|-3-3-3-3-3-3-3-3-3-3-3-3-3-3--|
E|----------------------------------|------------------------------|

 "You're sick and tired, of all the lies"
       A                G               
e|-----5-5-5-5-5-5-5-5--3-3-3-3-3-3-3-3-|
B|-----5-5-5-5-5-5-5-5--3-3-3-3-3-3-3-3-|
G|-----5-5-5-5-5-5-5-5--4-4-4-4-4-4-4-4-|
D|-----7-7-7-7-7-7-7-7--5-5-5-5-5-5-5-5-|
A|-----7-7-7-7-7-7-7-7--5-5-5-5-5-5-5-5-|
E|-----5-5-5-5-5-5-5-5--3-3-3-3-3-3-3-3-|

 "There Ain't gonna be a next time"
e|---------------------------------|
B|---------------------------------|
G|---5-5-5-5-5-5-5-5---------------|
D|---5-5-5-5-5-5-5-5---------------|
A|---3-3-3-3-3-3-3-3---------------|
E|---------------------------------|

Chorus:
  "Well, Come on! Come on! Give me a Chance, You'll See"
e|---------------------------------------------------------------------------|
B|---------------------------------------------------------------------------|
G|---------------------------------------------------------------------------|
D|--5-5-7-5-8-5-7-5-5-7-5-8-7-5----------------------------------------------|
A|--3-3-3-3-3-3-3-3-3-3-3-3-3-3----------------------------------------------|
E|---------------------------------------------------------------------------|

 "Come Onnnn! Come on! Don't Make me get on my knees..."
    A                G                F       G        A                F       G
e|--5-5-5-5-5-5-5-5--3-3-3-3-3-3-3-3--1-1-1-1-3-3-3-3--5-5-5-5-5-5-5-5--1-1-1-1-3-3-3-3-------|
B|--5-5-5-5-5-5-5-5--3-3-3-3-3-3-3-3--1-1-1-1-3-3-3-3--5-5-5-5-5-5-5-5--1-1-1-1-3-3-3-3-------|
G|--5-5-5-5-5-5-5-5--4-4-4-4-4-4-4-4--2-2-2-2-4-4-4-4--5-5-5-5-5-5-5-5--2-2-2-2-4-4-4-4-------|
D|--7-7-7-7-7-7-7-7--5-5-5-5-5-5-5-5--3-3-3-3-5-5-5-5--7-7-7-7-7-7-7-7--3-3-3-3-5-5-5-5-------|
A|--7-7-7-7-7-7-7-7--5-5-5-5-5-5-5-5--3-3-3-3-5-5-5-5--7-7-7-7-7-7-7-7--3-3-3-3-5-5-5-5-------|
E|--5-5-5-5-5-5-5-5--3-3-3-3-3-3-3-3--1-1-1-1-3-3-3-3--5-5-5-5-5-5-5-5--1-1-1-1-3-3-3-3-------|

                          "Come Onnnn! Come on!"
e|------------------------------------------------------|
B|--6-6-x-5--6-6-x-5--6-6-x-5--6-6-x-5------------------|
G|--5-5-x-5--5-5-x-5--5-5-x-5--5-5-x-5------------------|
D|--5-5-x-5--5-5-x-5--5-5-x-5--5-5-x-5------------------|Repeat as many times as you want
A|--3-3-x-3--3-3-x-3--3-3-x-3--3-3-x-3------------------|
E|------------------------------------------------------|

End with C
e|----------------------|
B|--5-5-5-5-5-5-5-5-5---|
G|--5-5-5-5-5-5-5-5-5---|
D|--5-5-5-5-5-5-5-5-5---| Strum fast
A|--3-3-3-3-3-3-3-3-3---|
E|----------------------|

DONE, Wow that took me while...

************************************

| /   slide up
| \   slide down
| h   hammer-on
| p   pull-off
| ~   vibrato
| +   harmonic
| x   Mute note
| b   Bend
| pb  Pre-bend
| br  Bend release
| pbr Pre-bend release
| brb Bend release bend

************************************
Tap to rate this tab
 
# A B C D E F G H I J K L M N O P Q R S T U V W X Y Z