The Living End - The Ending Is Just The Beginning Repeating tab

The Ending Is Just The Beginning Repeating - TLE

Tabbed by: Matt Heal
mattheal @ gmail.com


So this song was debut this morning 3rd of June on JJJ and released on iTunes pretty 
soon after, its the first single from TLE's upcoming 6th album.



Intro / Main Riff
gtr1
e|----------------------------------------------------------------|
b|----------------------------------------------------------------|
g|----------------------------------------------------------------|
d|--5--5-5-5--5---7--7-7-7--7---9---9-9-9---9----9---9-9-9---9----| x6
a|--7--7-7-7--7---9--9-9-9--9---10--101010--10---10--101010--10---|
E|--0--0-0-0--0---0--0-0-0--0---0---0-0-0---0----0---0-0-0---0----|


Second guitar intro / main verse
e|-----------------|
b|-----------------|
g|-----------------|
d|----9--9--9----7-| x as needed
a|----10-10-10---9-|
E|-0---------------|


Extra verse riff
e|------------------------------------------------------------|
b|------------------------------------------------------------|
g|------------------------------------------------------------|
d|-10--10-10-10--10-10-10--10-10-10---7--7-7-7--7-7-7--7-7-7--|
a|-12--12-12-12--12-12-12--12-12-12---9--9-9-9--9-9-9--9-9-9--|
E|------------------------------------------------------------|

the whole verse twice


Bridge (another guitar plays the chords once with a phaser on)
e|---------------------------------------------------------------|
b|--------------------------------8-8-8-8-8-8-8-8-8-8-8-8-8-8-8--|
g|-5-5-5-5-5-5-5-5-5-5-5-5-5-5-5--9-9-9-9-9-9-9-9-9-9-9-9-9-9-9--|
d|-5-5-5-5-5-5-5-5-5-5-5-5-5-5-5--9-9-9-9-9-9-9-9-9-9-9-9-9-9-9--|
a|-3-3-3-3-3-3-3-3-3-3-3-3-3-3-3--7-7-7-7-7-7-7-7-7-7-7-7-7-7-7--|
E|---------------------------------------------------------------|

e|---------------------------------------------------------------|
b|--------------------------------2-2-2-2-2-2-2-2-2-2-2-2-2-2-2--|
g|-5-5-5-5-5-5-5-5-5-5-5-5-5-5-5--2-2-2-2-2-2-2-2-2-2-2-2-2-2-2--|
d|-5-5-5-5-5-5-5-5-5-5-5-5-5-5-5--2-2-2-2-2-2-2-2-2-2-2-2-2-2-2--|
a|-3-3-3-3-3-3-3-3-3-3-3-3-3-3-3--0-0-0-0-0-0-0-0-0-0-0-0-0-0-0--|
E|---------------------------------------------------------------|

Chorus
e|------x-x-x--|
b|------x-x-x--|
g|---9--x-x-x--|
d|-9-9--x-x-x--|
a|-9-7--x-x-x--|
E|-7----x-x-x--|

Main Riff
gtr1
e|----------------------------------------------------------------|
b|----------------------------------------------------------------|
g|----------------------------------------------------------------|
d|--5--5-5-5--5---7--7-7-7--7---9---9-9-9---9----9---9-9-9---9----| x6
a|--7--7-7-7--7---9--9-9-9--9---10--101010--10---10--101010--10---|
E|--0--0-0-0--0---0--0-0-0--0---0---0-0-0---0----0---0-0-0---0----|


Second guitar Main riff / main verse
e|-----------------|
b|-----------------|
g|-----------------|
d|----9--9--9----7-| x as needed
a|----10-10-10---9-|
E|-0---------------|


Extra verse riff
e|------------------------------------------------------------|
b|------------------------------------------------------------|
g|------------------------------------------------------------|
d|-10--10-10-10--10-10-10--10-10-10---7--7-7-7--7-7-7--7-7-7--|
a|-12--12-12-12--12-12-12--12-12-12---9--9-9-9--9-9-9--9-9-9--|
E|------------------------------------------------------------|

only 1 time through

Bridge (another guitar plays the chords once with a phaser on)
e|---------------------------------------------------------------|
b|--------------------------------8-8-8-8-8-8-8-8-8-8-8-8-8-8-8--|
g|-5-5-5-5-5-5-5-5-5-5-5-5-5-5-5--9-9-9-9-9-9-9-9-9-9-9-9-9-9-9--|
d|-5-5-5-5-5-5-5-5-5-5-5-5-5-5-5--9-9-9-9-9-9-9-9-9-9-9-9-9-9-9--|
a|-3-3-3-3-3-3-3-3-3-3-3-3-3-3-3--7-7-7-7-7-7-7-7-7-7-7-7-7-7-7--|
E|---------------------------------------------------------------|

e|---------------------------------------------------------------|
b|--------------------------------2-2-2-2-2-2-2-2-2-2-2-2-2-2-2--|
g|-5-5-5-5-5-5-5-5-5-5-5-5-5-5-5--2-2-2-2-2-2-2-2-2-2-2-2-2-2-2--|
d|-5-5-5-5-5-5-5-5-5-5-5-5-5-5-5--2-2-2-2-2-2-2-2-2-2-2-2-2-2-2--|
a|-3-3-3-3-3-3-3-3-3-3-3-3-3-3-3--0-0-0-0-0-0-0-0-0-0-0-0-0-0-0--|
E|---------------------------------------------------------------|

Chorus
e|------x-x-x--|
b|------x-x-x--|
g|---9--x-x-x--|
d|-9-9--x-x-x--|
a|-9-7--x-x-x--|
E|-7----x-x-x--|

Solo (still working on)

Delay w/  3 long repeats + Phaser
e|----------------------------------------12-10-------|
b|-12//-10-13-12~-10^-8-10-10b12-8--------------12----|
g|---------------------------------9~---9----------9~-|
d|----------------------------------------------------|
a|----------------------------------------------------|
E|----------------------------------------------------|

e|---------------10--/15-15-14-14-12-12-11-11---------------------------|
b|-8b10-7-8-10b12-----------------------------13-13-12-12---8-10b12-----|
g|----------------------------------------------------------------------|
d|----------------------------------------------------------------------|
a|----------------------------------------------------------------------|
E|----------------------------------------------------------------------|

2nd guitar in solo
e|-----------------|
b|-----------------|
g|-----------------|
d|----9--9--9----7-|
a|----10-10-10---9-|
E|-0---------------|

then when the key changes
e|-----------------|
b|-----------------|
g|-----------------|
d|----10-10-10--9--|
a|----12-12-12--10-|
E|-0---------------|


Bridge (another guitar plays the chords once with a phaser on)
Gtr 1
e|---------------------------------------------------------------|
b|--------------------------------8-8-8-8-8-8-8-8-8-8-8-8-8-8-8--|
g|-5-5-5-5-5-5-5-5-5-5-5-5-5-5-5--9-9-9-9-9-9-9-9-9-9-9-9-9-9-9--|
d|-5-5-5-5-5-5-5-5-5-5-5-5-5-5-5--9-9-9-9-9-9-9-9-9-9-9-9-9-9-9--|
a|-3-3-3-3-3-3-3-3-3-3-3-3-3-3-3--7-7-7-7-7-7-7-7-7-7-7-7-7-7-7--|
E|---------------------------------------------------------------|

e|---------------------------------------------------------------|
b|--------------------------------2-2-2-2-2-2-2-2-2-2-2-2-2-2-2--|
g|-5-5-5-5-5-5-5-5-5-5-5-5-5-5-5--2-2-2-2-2-2-2-2-2-2-2-2-2-2-2--|
d|-5-5-5-5-5-5-5-5-5-5-5-5-5-5-5--2-2-2-2-2-2-2-2-2-2-2-2-2-2-2--|
a|-3-3-3-3-3-3-3-3-3-3-3-3-3-3-3--0-0-0-0-0-0-0-0-0-0-0-0-0-0-0--|
E|---------------------------------------------------------------|

Gtr 2
e|----2h3p2-0--------2h3p2-0--------2h3p2-0----|
b|--0---------1~---0---------1~---0---------1~-|
g|---------------------------------------------|
d|---------------------------------------------|
a|---------------------------------------------|
E|---------------------------------------------|

e|-----14h15p14-12--14p12---------------------2h3p2-0---------|
b|---12-------------------13---15/12--12/7--0---------1~------|
g|------------------------------------------------------------|
d|------------------------------------------------------------|
a|------------------------------------------------------------|
E|------------------------------------------------------------|

Outro
e|----------------------------------------------------------------|
b|----------------------------------------------------------------|
g|----------------------------------------------------------------|
d|--5--5-5-5--5---7--7-7-7--7---9---9-9-9---9----9---9-9-9---9----| x6
a|--7--7-7-7--7---9--9-9-9--9---10--101010--10---10--101010--10---|
E|--0--0-0-0--0---0--0-0-0--0---0---0-0-0---0----0---0-0-0---0----|

End with
e|-0--|
b|-0--|
g|-0--|
d|-2--|
a|-2--|
E|-0--|
Tap to rate this tab
 
# A B C D E F G H I J K L M N O P Q R S T U V W X Y Z