Song name
# A B C D E F G H I J K L M N O P Q R S T U V W X Y Z

The Living End - United tab

United - The Living End

Tabbed by: Matt Heal
email: mattheal @ gmail.com

intro
e|-----------------|
b|--11-11---11-11--|
g|--12-12---12-12--|
d|-----------------|
a|-----------------|
E|-----------------|

Verse
e|---------3-----------3-----------3-------------|
b|---------3-----------3-----------3-------------|
g|-----------------------------------------------|
d|-----------------------------------------------|
a|-----1-----------1----------1-----------1------|
E|-1h3---3----1h3----3----1h3---3-----1h3---3----|

Pre Chorus

e|-3--3--3-1--1--1-3--3--3-1--1--1-3--3--3-1--1/2--3---|
b|-3--3--3-1--1--1-3--3--3-1--1--1-4--4--4-1--1/2--3---|
g|-3--3--3-2--2--2-3--3--3-2--2--2-5--5--5-2--2/3--3---|
d|-5--5--5-3--3--3-5--5--5-3--3--3-5--5--5-3--3/4--5---|
a|-5--5--5-3--3--3-5--5--5-3--3--3-3--3--3-3--3/4--5---|
E|-3--3--3-1--1--1-3--3--3-1--1--1---------1--1/2--3---|

gtr 2
e|-------------------------|
b|-------------------------|
g|-5--7--8--10---2-3--3----|
d|-x--x--x--x----3-4--5----|
a|-3--5--6--8----3-4--5----|
E|---------------1-2--3----|

Chorus                                                                   last time add this
e|-3-3-3-3-3-3-3-3----------------------------------------------------|-----------------|
b|-3-3-3-3-3-3-3-3--2-2-2-2-2-2-2-2--3-3-3-3-3-3-3-3--5-5-5-5-5-5-5-5-|-7-7-7-7-7-7-7-7-|
g|-3-3-3-3-3-3-3-3--2-2-2-2-2-2-2-2--3-3-3-3-3-3-3-3--5-5-5-5-5-5-5-5-|-7-7-7-7-7-7-7-7-|
d|-5-5-5-5-5-5-5-5--2-2-2-2-2-2-2-2--3-3-3-3-3-3-3-3--5-5-5-5-5-5-5-5-|-7-7-7-7-7-7-7-7-|
a|-5-5-5-5-5-5-5-5--0-0-0-0-0-0-0-0--1-1-1-1-1-1-1-1--3-3-3-3-3-3-3-3-|-5-5-5-5-5-5-5-5-|
E|-3-3-3-3-3-3-3-3----------------------------------------------------|-----------------|

Verse (second time round there is another guitar over the top)
e|---------3-----------3-----------3-------------|
b|---------3-----------3-----------3-------------|
g|-----------------------------------------------|
d|-----------------------------------------------|
a|-----1-----------1----------1-----------1------|
E|-1h3---3----1h3----3----1h3---3-----1h3---3----|



Pre Chorus

e|-3--3--3-1--1--1-3--3--3-1--1--1-3--3--3-1--1/2--3---|
b|-3--3--3-1--1--1-3--3--3-1--1--1-4--4--4-1--1/2--3---|
g|-3--3--3-2--2--2-3--3--3-2--2--2-5--5--5-2--2/3--3---|
d|-5--5--5-3--3--3-5--5--5-3--3--3-5--5--5-3--3/4--5---|
a|-5--5--5-3--3--3-5--5--5-3--3--3-3--3--3-3--3/4--5---|
E|-3--3--3-1--1--1-3--3--3-1--1--1---------1--1/2--3---|

gtr 2
e|-------------------------|
b|-------------------------|
g|-5--7--8--10---2-3--3----|
d|-x--x--x--x----3-4--5----|
a|-3--5--6--8----3-4--5----|
E|---------------1-2--3----|


Chorus                                                                   last time add this
e|-3-3-3-3-3-3-3-3----------------------------------------------------|-----------------|
b|-3-3-3-3-3-3-3-3--2-2-2-2-2-2-2-2--3-3-3-3-3-3-3-3--5-5-5-5-5-5-5-5-|-7-7-7-7-7-7-7-7-|
g|-3-3-3-3-3-3-3-3--2-2-2-2-2-2-2-2--3-3-3-3-3-3-3-3--5-5-5-5-5-5-5-5-|-7-7-7-7-7-7-7-7-|
d|-5-5-5-5-5-5-5-5--2-2-2-2-2-2-2-2--3-3-3-3-3-3-3-3--5-5-5-5-5-5-5-5-|-7-7-7-7-7-7-7-7-|
a|-5-5-5-5-5-5-5-5--0-0-0-0-0-0-0-0--1-1-1-1-1-1-1-1--3-3-3-3-3-3-3-3-|-5-5-5-5-5-5-5-5-|
E|-3-3-3-3-3-3-3-3----------------------------------------------------|-----------------|

2nd guitar
e|--------------------------|
b|--17b20---17b20----17b20--|
g|--------------------------|
d|--------------------------|
a|--------------------------|
E|--------------------------|

"solo"
with fuzz? then 2 guitars dirty
e|------------------|
b|------------------|
g|------------------|
d|------------------|
a|-------1----------|
E|-1h3-3---3-3-3-3--|

then over the top another guitar with

e|-----------------------|
b|-----------------------|
g|-----------------------|
d|---------8-------------|
a|-8h10-10---10-10-10-10-|
E|-----------------------|


Pre chorus v2

e|----------------------------------------------------------------------------------|
b|----------------------------------------------------------------------------------|
g|---------------------------------------------5-5-5-5-5----------------------------|
d|-5-5-5-5-5--3-3-3-3-3--5-5-5-5-5--3-3-3-3-3--5-5-5-5-5--3-3-3-3-3-----5-5-5-5-5---|
a|-5-5-5-5-5--3-3-3-3-3--5-5-5-5-5--3-3-3-3-3--3-3-3-3-3--3-3-3-3-3--3--5-5-5-5-5---|
E|-3-3-3-3-3--1-1-1-1-1--3-3-3-3-3--1-1-1-1-1-------------1-1-1-1-1--2--3-3-3-3-3---|

gtr 2
e|-------------------------|
b|-------------------------|
g|-5--7--8--10---2-3--3----|
d|-x--x--x--x----3-4--5----|
a|-3--5--6--8----3-4--5----|
E|---------------1-2--3----|


outro

e|---------3-----------3-----------3-------------|
b|---------3-----------3-----------3-------------|
g|-----------------------------------------------|
d|-----------------------------------------------|
a|-----1-----------1----------1-----------1------|
E|-1h3---3----1h3----3----1h3---3-----1h3---3----|
Tap to rate this tab
 
# A B C D E F G H I J K L M N O P Q R S T U V W X Y Z