Song name
# A B C D E F G H I J K L M N O P Q R S T U V W X Y Z

The Living End - Universe tab

Universe - The Living End
Tabbed by: Matt Heal
email: mattheal @ gmail.com


intro
e|------------------|
b|------------------|
g|-777-666-777-666--|
d|-777-777-777-777--|
a|-555-555-555-555--|
E|------------------|

verse

e|--------------------------------333-333-333----|
b|------------------333-333-333---333-333-333----|
g|-777-666-777-666--444-444-444---444-444-444----|
d|-777-777-777-777--444-444-444---555-555-555----|
a|-555-555-555-555--222-222-222---555-555-555----|
E|--------------------------------333-333-333----|

Racing across...

e|-3-3-33-3------------------------------------------3-3-33-3-----------|
b|-3-3-33-3--2-2-22-2------------3-3-33-3--2-2-22-2--3-3-33-3-2-2-22-2--|
g|-4-4-44-4--2-2-22-2--7-7-77-7--4-4-44-4--2-2-22-2--4-4-44-4-2-2-22-2--|
d|-5-5-55-5--2-2-22-2--7-7-77-7--4-4-44-4--2-2-22-2--5-5-55-5-2-2-22-2--|
a|-5-5-55-5--0-0-00-0--5-5-55-5--2-2-22-2--0-0-00-0--5-5-55-5-0-0-00-0--|
E|-3-3-33-3------------------------------------------3-3-33-3-----------|

Chorus (number of strums isnt exact)

e|-------------3-3-3-3--2-2-2--3-3-3-------|
b|-3-3-3--2-2--3-3-3-3--2-2-2--3-3-3--2-2--|
g|-4-4-4--2-2--0-0-0-0--2-2-2--0-0-0--2-2--|
d|-4-4-4--2-2--0-0-0-0--4-4-4--0-0-0--2-2--|
a|-2-2-2--0-0--2-2-2-2--4-4-4--2-2-2--0-0--|
E|-------------3-3-3-3--2-2-2--3-3-3-------|

verse
e|--------------------------------333-333-333----|
b|------------------333-333-333---333-333-333----|
g|-777-666-777-666--444-444-444---444-444-444----|
d|-777-777-777-777--444-444-444---555-555-555----|
a|-555-555-555-555--222-222-222---555-555-555----|
E|--------------------------------333-333-333----|

  
e|-3-3-33-3------------------------------------------3-3-33-3-----------|
b|-3-3-33-3--2-2-22-2------------3-3-33-3--2-2-22-2--3-3-33-3-2-2-22-2--|
g|-4-4-44-4--2-2-22-2--7-7-77-7--4-4-44-4--2-2-22-2--4-4-44-4-2-2-22-2--|
d|-5-5-55-5--2-2-22-2--7-7-77-7--4-4-44-4--2-2-22-2--5-5-55-5-2-2-22-2--|
a|-5-5-55-5--0-0-00-0--5-5-55-5--2-2-22-2--0-0-00-0--5-5-55-5-0-0-00-0--|
E|-3-3-33-3------------------------------------------3-3-33-3-----------|

Chorus (number of strums isnt exact)

e|-------------3-3-3-3--2-2-2--3-3-3-------|
b|-3-3-3--2-2--3-3-3-3--2-2-2--3-3-3--2-2--|
g|-4-4-4--2-2--0-0-0-0--2-2-2--0-0-0--2-2--|
d|-4-4-4--2-2--0-0-0-0--4-4-4--0-0-0--2-2--|
a|-2-2-2--0-0--2-2-2-2--4-4-4--2-2-2--0-0--|
E|-------------3-3-3-3--2-2-2--3-3-3-------|

Pre-solo
e|------------------|
b|------------------|
g|-777-666-777-666--|
d|-777-777-777-777--|
a|-555-555-555-555--|
E|------------------|

solo

e|------------------|
b|--15p14--------14-|
g|-------14-12h14---|
d|------------------| x lots, 1 time with no hammers / pull offs
a|------------------|
E|------------------|

another guitar with some filter effect

e|--17---------17---------------------------|
b|----17-19------19-------------------------|
g|----------16-----------14----------16-14--|
d|--------------------------14-16-----------|
a|--------------------------------14--------|
E|------------------------------------------|

+ more bits

pre chorus


e|-3-3-33-3------------------------------------------3-3-33-3-----------|
b|-3-3-33-3--2-2-22-2------------3-3-33-3--2-2-22-2--3-3-33-3-2-2-22-2--|
g|-4-4-44-4--2-2-22-2--7-7-77-7--4-4-44-4--2-2-22-2--4-4-44-4-2-2-22-2--|
d|-5-5-55-5--2-2-22-2--7-7-77-7--4-4-44-4--2-2-22-2--5-5-55-5-2-2-22-2--|
a|-5-5-55-5--0-0-00-0--5-5-55-5--2-2-22-2--0-0-00-0--5-5-55-5-0-0-00-0--|
E|-3-3-33-3------------------------------------------3-3-33-3-----------|

Chorus (acoustic guitar first time, and number of strums isnt exact)

e|-------------3-3-3-3--2-2-2--3-3-3-------|
b|-3-3-3--2-2--3-3-3-3--2-2-2--3-3-3--2-2--|
g|-4-4-4--2-2--0-0-0-0--2-2-2--0-0-0--2-2--|
d|-4-4-4--2-2--0-0-0-0--4-4-4--0-0-0--2-2--|
a|-2-2-2--0-0--2-2-2-2--4-4-4--2-2-2--0-0--|
E|-------------3-3-3-3--2-2-2--3-3-3-------|

Outro is a slight variation on this riff
e|------------------|
b|------------------|
g|-777-666-777-666--|
d|-777-777-777-777--|
a|-555-555-555-555--|
E|------------------|
Tap to rate this tab
 
# A B C D E F G H I J K L M N O P Q R S T U V W X Y Z