The Living End - Machine Gun tab

Machine Gun - The Living End
Tabbed by: Matt Heal
Email: mattheal @ gmail.com

Intro with Tremelo effect

e|-7-----------xxxxxxxxxxxxxxxxxxx----|
b|-8-----------xxxxxxxxxxxxxxxxxxx----|
g|-9-----------xxxxxxxxxxxxxxxxxxx----|
d|-9-----------xxxxxxxxxxxxxxxxxxx----|
a|-7-----------xxxxxxxxxxxxxxxxxxx----|
E|-0-----------xxxxxxxxxxxxxxxxxxx----|

THE RIFF:
e|-------------------------------------------------------------|
b|-------------------------------------------------------------|
g|-------------------------------------------------------------| x 4 with a 
d|-------------------------------------------------------------| different 
a|---5\4-----5\4-----5\4-----5\4-----5\4-----5\4-----5\4-------| fill at the end
E|-0-3\2-0-0-3\2-0-0-3\2-0-0-3\2-0-0-3\2-0-0-3\2-0-0-3\2-0-----|
pm       * *     * *     * *     * *     * *     * *     *

1st & 3rd fill

e|---------|
b|---------|
g|---------|
d|---------|
a|-----5~~-|
E|-15\-----|

2nd fill
e|----------|
b|----------|
g|----------|
d|----------|
a|--5h6h7~--|
E|----------|

4th fill
e|-------------------|
b|-------------------|
g|-------------------|
d|-------------------|
a|-5h6h7~----5h6h7~--|
E|---------0---------|

VERSE

e|---7-7-7-7777-|                e|---7-7-7-7777-|
b|---8-8-8-8888-|                b|---7-7-7-7777-|
g|---9-9-9-9999-| as needed then g|---8-8-8-8888-|
d|---9-9-9-9999-|                d|---9-9-9-9999-|
a|---7-7-7-7777-|                a|---9-9-9-9999-|
E|-0------------|                E|-7-7-7-7-7777-|

guitar 2

e|----------------------------------------|
b|-8-10-12--------------8-10-12-----------|
g|-x-x--x---------------x-x--x------------|
d|-5-7--9---------------5-7--9------------|
a|---------7~--7\\----------------6~-7\\--|
E|----------------------------------------|

Pre Chorus
e|-5-5-5-5555--5-5-5-5555---------------------------7-7-7-7777--7-7-7-7777--|
b|-5-5-5-5555--5-5-5-5555---5-5-5-5555--5-5-5-5555--8-8-8-8888--8-8-8-8888--|
g|-5-5-5-5555--5-5-5-5555---5-5-5-5555--5-5-5-5555--9-9-9-9999--9-9-9-9999--|
d|-7-7-7-7777--7-7-7-7777---5-5-5-5555--5-5-5-5555--9-9-9-9999--9-9-9-9999--|x2 2nd 
a|-7-7-7-7777--7-7-7-7777---3-3-3-3333--3-3-3-3333--7-7-7-7777--7-7-7-7777--|time dont play the 
E|-5-5-5-5555--5-5-5-5555---------------------------------------------------|Emin

Guitar 2

e|----------------------------------|
b|----5-----------------------5-----|
g|------5~--7\4~----------------5~--|
d|-7~-------------2~------7~--------|
a|----------------------------------|
E|----------------------------------|


Chorus: Both Guitars

e|---77777777----------|
b|---88888888----------|
g|---99999999-------7--|
d|---99999999---7-9-7--| x 8
a|---77777777---7-9-5--|
E|--------------5-7----|

pre verse (acoustic bit)
e|---77777777---|
b|---88888888---|
g|---99999999---|
d|---99999999---|
a|---77777777---|
E|--------------|


VERSE

e|---7-7-7-7777-|                e|---7-7-7-7777-|
b|---8-8-8-8888-|                b|---7-7-7-7777-|
g|---9-9-9-9999-| as needed then g|---8-8-8-8888-|
d|---9-9-9-9999-|                d|---9-9-9-9999-|
a|---7-7-7-7777-|                a|---9-9-9-9999-|
E|-0------------|                E|-7-7-7-7-7777-|

guitar 2

e|-------------------------------------------------------------|
b|-8-10-12--------------8-10-12-------------8-10-12------------|
g|-x-x--x---------------x-x--x--------------x-x--x-------------|
d|-5-7--9---------------5-7--9--------------5-7--9-------------|
a|---------7~--7\\----------------6~-7\\-------------7~--7\\---|
E|-------------------------------------------------------------|


PRE CHORUS
e|-5-5-5-5555--5-5-5-5555---------------------------7-7-7-7777--7-7-7-7777--|
b|-5-5-5-5555--5-5-5-5555---5-5-5-5555--5-5-5-5555--8-8-8-8888--8-8-8-8888--|
g|-5-5-5-5555--5-5-5-5555---5-5-5-5555--5-5-5-5555--9-9-9-9999--9-9-9-9999--|
d|-7-7-7-7777--7-7-7-7777---5-5-5-5555--5-5-5-5555--9-9-9-9999--9-9-9-9999--|x2 2nd 
a|-7-7-7-7777--7-7-7-7777---3-3-3-3333--3-3-3-3333--7-7-7-7777--7-7-7-7777--|time dont play the 
E|-5-5-5-5555--5-5-5-5555---------------------------------------------------|Emin

Guitar 2

e|----------------------------------|
b|----5-----------------------5-----|
g|------5~--7\4~----------------5~--|
d|-7~-------------2~------7~--------|
a|----------------------------------|
E|----------------------------------|


CHORUS: Both Guitars

e|---77777777----------|
b|---88888888----------|
g|---99999999-------7--|
d|---99999999---7-9-7--| x 8
a|---77777777---7-9-5--|
E|--------------5-7----|


"Solo"
1 guitar with phaser then another with heavy distortion
e|---777---777-777--|
b|---888---888-888--|
g|---999---999-999--|
d|---999---999-999--|
a|---777---777-777--|
E|-0-----0----------|

Outro

e|---------------------------------------------------------------------------------|
b|---------------------------------------------------------------------------------|
g|---------------------------------------------------------------------------------|
d|---------------------------------------------------------------------------2-----|
a|---5\4-----5\4-----5\4-----5\4-----5\4-----5\4-----5\4------5~~~~~~~~------2-----|
E|-0-3\2-0-0-3\2-0-0-3\2-0-0-3\2-0-0-3\2-0-0-3\2-0-0-3\2-0-------------------0-----|
Tap to rate this tab
 
# A B C D E F G H I J K L M N O P Q R S T U V W X Y Z