Song name
# A B C D E F G H I J K L M N O P Q R S T U V W X Y Z

The Living End - Resist tab

Resist - The Living End
Tabbed by Matt Heal
Email: mattheal @ Gmail.com

CAPO on 2nd fret. everything is relative to the capo

Intro
e|---5--------------5--------------------|
b|-----5--------------5------------------|
g|-------4--------------4----5----4~-----|
d|---------2-----------------------------|
a|-0--------------0--------0----0--------|
E|---------------------------------------|
 
Pre verse
e|-0-0------0-0----------|
b|-1-1------1-1----*12---|
g|-2-2------2-2----------|
d|-2-2------2-2----------|
a|-0-0------0-0----------|
E|-----------------------|

Verse guitar 1
e|--------------------------------------|
b|-------1--------0--------1--------3---|
g|-----2--------2--------2--------4-----|
d|---2--------2--------3--------5-------|
a|-0--------0--------0--------0---------|
E|--------------------------------------|

Guitar 2 comes in at the end of the verse
 
e|----------------|
b|-10-10-10-10-10-|
g|-x--x--x--x--x--|
d|-7--7--7--7--7--| x lots
a|-0--0--0--0--0--|
E|----------------|

Chorus

Gtr 1
e|-0-0-0--0-0-0--1-1-1--3-3-3---|
b|-1-1-1--0-0-0--1-1-1--3-3-3---|
g|-2-2-2--0-0-0--2-2-2--0-0-0---|
d|-2-2-2--2-2-2--3-3-3--0-0-0---|
a|-0-0-0--2-2-2--3-3-3--2-2-2---|
E|--------0-0-0--1-1-1--3-3-3---|

Gtr 2 
e|----------------|
b|-10-10-10-10-10-|
g|-x--x--x--x--x--|
d|-7--7--7--7--7--| x lots
a|-0--0--0--0--0--|
E|----------------|


Verse guitar 1
e|--------------------------------------|
b|-------1--------0--------1--------3---|
g|-----2--------2--------2--------4-----|
d|---2--------2--------3--------5-------|
a|-0--------0--------0--------0---------|
E|--------------------------------------|

Chorus

Gtr 1
e|-0-0-0--0-0-0--1-1-1--3-3-3---|
b|-1-1-1--0-0-0--1-1-1--3-3-3---|
g|-2-2-2--0-0-0--2-2-2--0-0-0---|
d|-2-2-2--2-2-2--3-3-3--0-0-0---|
a|-0-0-0--2-2-2--3-3-3--2-2-2---|
E|--------0-0-0--1-1-1--3-3-3---|

Gtr 2 
e|----------------|
b|-10-10-10-10-10-|
g|-x--x--x--x--x--|
d|-7--7--7--7--7--| x lots
a|-0--0--0--0--0--|
E|----------------|

Bridge (treated like an...

e|-1111111111111111--0000000000000000--1111111111111111--00000000--33333333--11111111------------|
b|-1111111111111111--1111111111111111--1111111111111111--11111111--33333333--11111111------------|
g|-2222222222222222--2222222222222222--2222222222222222--22222222--00000000--22222222--00000000--|
d|-3333333333333333--2222222222222222--3333333333333333--22222222--00000000--33333333--22222222--|
a|-3333333333333333--0000000000000000--3333333333333333--00000000--22222222--33333333--22222222--|
E|-1111111111111111--------------------1111111111111111------------33333333--11111111--00000000--|

Solo (not 100% on
e|----5--------------3p0------------------5--------------3p0-----------------|
b|------5----------------3p1-0--------------5----------------3p1-0-----------|
g|---------5-4h5p4p0-----------2p0-------------5-4\5/4p0-----------2p0-------|
d|---------------------------------2-----------------------------------2-----|
a|-0------------------------------------0------------------------------------|
E|---------------------------------------------------------------------------|
                                 (not 100% on this part)
e|------------------------------------------------------------|
b|--------------------------5---------------------------------|
g|---2-4h5----4p0------4\5--5---------------------------------|
d|----------2------3\5-5\7-------3-----5-----7-----11----12~--|
a|-0-------------------------------0-0---2-2---3-3----55------|
E|------------------------------------------------------------|

e|-----------------------------|
b|-----------------------------|
g|-12~-11~-9~------12-11-9-----|
d|------------12~-----------12-|
a|-----------------------------|
E|-----------------------------|


2nd bridge (note not exact amount of repeats for each set)
e|------------------------------------------------------------------------------|
b|-1-----1-----1-------0-----0-----0------1-----1-----1-----0------0-----0------|
g|---0-----0-----0-------0-----0-----0------0-----0-----0-----0------0-----0----|
d|-----2-----2-----2-------2-----2-----2------2-----2-----2-----2------2-----2--|
a|------------------------------------------------------------------------------|
E|------------------------------------------------------------------------------|

e|--------------------------------------------------------------|
b|-1-----1-----1--------1-----1-----1------0-----0-----0--------|
g|---2-----2-----2--------0-----0-----0------0-----0-----0------|
d|-----3-----3-----3--------2-----2-----2------0-----0-----0----|
a|--------------------------------------------------------------|
E|--------------------------------------------------------------|

Chorus

Gtr 1
e|-0-0-0--0-0-0--1-1-1--3-3-3---|
b|-1-1-1--0-0-0--1-1-1--3-3-3---|
g|-2-2-2--0-0-0--2-2-2--0-0-0---|
d|-2-2-2--2-2-2--3-3-3--0-0-0---|
a|-0-0-0--2-2-2--3-3-3--2-2-2---|
E|--------0-0-0--1-1-1--3-3-3---|

Gtr 2 
e|----------------|
b|-10-10-10-10-10-|
g|-x--x--x--x--x--|
d|-7--7--7--7--7--| x lots
a|-0--0--0--0--0--|
E|----------------|

Verse guitar 1
e|--------------------------------------|
b|-------1--------0--------1--------3---|
g|-----2--------2--------2--------4-----|
d|---2--------2--------3--------5-------|
a|-0--------0--------0--------0---------|
E|--------------------------------------|

End on a Ringing out Am chord
Tap to rate this tab
 
# A B C D E F G H I J K L M N O P Q R S T U V W X Y Z