Song name
# A B C D E F G H I J K L M N O P Q R S T U V W X Y Z

The Living End - Song For The Lonely tab

Song For The Lonely - The Living End
Tabbed by: Matt Heal
email: mattheal @ gmail.com


Intro / verse
e|------------------------------------------------|
b|------------------------------------------------|
g|-7777777777777777777777--7777777777777777777777-|
d|-xxxxxxxxxxxxxxxxxxxxxx--xxxxxxxxxxxxxxxxxxxxxx-| x as needed
a|-5555555555555555555555--5555555555555555555555-|
E|-------------------------6666666666666666666666-|

(this songs for the lonely...

e|-6------3-----|
b|-6------3-----|
g|-7------0-----|
d|-8------0-----|
a|-8------x-----|
E|-6------3-----|

Verse again but 2 gtrs.

Gtr 1
e|------------------------------------------------|
b|------------------------------------------------|
g|-7777777777777777777777--7777777777777777777777-|
d|-xxxxxxxxxxxxxxxxxxxxxx--xxxxxxxxxxxxxxxxxxxxxx-| x as needed
a|-5555555555555555555555--5555555555555555555555-|
E|-------------------------6666666666666666666666-|


Gtr 2 


e|----------------|
b|----------------|
g|----------------|
d|-7p0-5p0-4p0----|
a|----------------|
E|----------------|

Which morphs into somewhere:
e|----------------|
b|----------------|
g|----------------|
d|-4p0-5p0-7p0----|
a|----------------|
E|----------------|

Gtr 3
Lead fill bit with chorus pedal
e|------------|
b|-6\8\10/6---|
g|-x\x\x-/x---|
d|-3\5\7-/3---|
a|------------|
E|------------|


Chorus
e|-------------------3-3-3-3-3-3-3-3------------------3-3-3-3-3-3-3-3---|
b|-------------------3-3-3-3-3-3-3-3------------------3-3-3-3-3-3-3-3---|
g|-7777777777777777--3-3-3-3-3-3-3-3-7777777777777777-3-3-3-3-3-3-3-3---|
d|-7777777777777777--5-5-5-5-5-5-5-5-7777777777777777-5-5-5-5-5-5-5-5---|
a|-5555555555555555--5-5-5-5-5-5-5-5-5555555555555555-5-5-5-5-5-5-5-5---|
E|-------------------3-3-3-3-3-3-3-3------------------3-3-3-3-3-3-3-3---|

part 2
e|-----6-6-6-6-6-6--3-3-3-3-3-3--6-6-6-6-6-6--3-3-3-3-3-3----------|
b|-----6-6-6-6-6-6--3-3-3-3-3-3--6-6-6-6-6-6--3-3-3-3-3-3--7--7----|
g|-----7-7-7-7-7-7--3-3-3-3-3-3--7-7-7-7-7-7--3-3-3-3-3-3--7--7----|
d|-5\7-8-8-8-8-8-8--5-5-5-5-5-5--8-8-8-8-8-8--5-5-5-5-5-5--7--7----|
a|-5\7-8-8-8-8-8-8--5-5-5-5-5-5--8-8-8-8-8-8--5-5-5-5-5-5--5--5----|
E|-3\5-6-6-6-6-6-6--3-3-3-3-3-3--6-6-6-6-6-6--3-3-3-3-3-3----------|

Love is a warning...

e|-6-666-5-6---6-666-5-6---5-555-5-5---5-555-5-5----6-666-5-6---6-666-5-6--|
b|-8-888-8-8---8-888-8-8---7-777-5-7---7-777-5-7----8-888-8-8---8-888-8-8--|
g|-7-777-7-7---7-777-7-7---7-777-7-7---7-777-7-7----7-777-7-7---7-777-7-7--|
d|-5-555-5-5---5-555-5-5---7-777-7-7---7-777-7-7----5-555-5-5---5-555-5-5--|
a|-5-555-5-5---5-555-5-5---5-555-5-5---5-555-5-5----5-555-5-5---5-555-5-5--|
E|-------------------------------------------------------------------------|
 
Living inside a dream (let chords ring)

e|-------6-------------|
b|-7-----6----5----4---|
g|-7-----7----0----5---|
d|-7-----8----5----6---|
a|-5-----8----0----6---|
E|-------6----5----4---| 

Pre Solo

Gtr 1

e|-------------------------|
b|-------------------------|
g|-7777777777777777777777--|
d|-xxxxxxxxxxxxxxxxxxxxxx--|
a|-5555555555555555555555--|
E|-------------------------|
 
Gtr 2
e|----------------|
b|----------------|
g|----------------|
d|-7p0-5p0-4p0----|
a|----------------|
E|----------------|


Solo

Gtr 1
e|----------------------------------------------------------10---------------------|
b|-----------------------------------------------------10b12--12r10-----10---------|
g|---11-11-9-11-9-7---11-11-9-11-9-7---11-11-9-11-9-7---------------9b11--11r9-7~--|
d|-0-0--0--0-0--0-0---0--0--0-0--0-0---0--0--0-0--0-0------------------------------|
a|---------------------------------------------------------------------------------|
E|---------------------------------------------------------------------------------|
 
e|---------------------------------------------------------\-3-------------3---|
b|-6\8\10/6----------------------10-11-10p11h10------------\-2-------------2---|
g|-x\x\x-/x----7\9\10/7-------10----------------12-10------\-3-------------3---|
d|-3\5\7-/3----x\x\x-/x---\12--------------------------12~---0----0h2p0----0---|
a|-------------5\7\8-/5--------------------------------------0--3-------3------|
E|-----------------------------------------------------------------------------|


e|-----------------------------------------------|
b|----------15-----------15---------15--------15-|
g|-12-12h14-----12-12h14-----12h14------12h14----|
d|-0--0---------0--0---------0----------0--------|
a|-----------------------------------------------|
E|-----------------------------------------------|


e|-15b17r15p14-----------------------------------------------------------xxxxx----|
b|------------17-15~---171717171715--------------------------------------xxxxx----|
g|---------------------151515151515---17b19r17-15-14----------7-7-777-7--xxxxx----|
d|---------------------------------------------------15-------x-x-xxx-x--xxxxx----|
a|-------------------------------------------------------17~--5-5-555-5--xxxxx----|
E|-----------------------------------------------------------------------xxxxx----|

Gtr 2
e|------------------------------------------------|
b|------------------------------------------------|
g|-7777777777777777777777--7777777777777777777777-|
d|-xxxxxxxxxxxxxxxxxxxxxx--xxxxxxxxxxxxxxxxxxxxxx-| x as needed
a|-5555555555555555555555--5555555555555555555555-|
E|-------------------------6666666666666666666666-|


Chorus
e|-------------------3-3-3-3-3-3-3-3------------------3-3-3-3-3-3-3-3---|
b|-------------------3-3-3-3-3-3-3-3------------------3-3-3-3-3-3-3-3---|
g|-7777777777777777--3-3-3-3-3-3-3-3-7777777777777777-3-3-3-3-3-3-3-3---|
d|-7777777777777777--5-5-5-5-5-5-5-5-7777777777777777-5-5-5-5-5-5-5-5---|
a|-5555555555555555--5-5-5-5-5-5-5-5-5555555555555555-5-5-5-5-5-5-5-5---|
E|-------------------3-3-3-3-3-3-3-3------------------3-3-3-3-3-3-3-3---|

part 2
e|-----6-6-6-6-6-6--3-3-3-3-3-3--6-6-6-6-6-6--3-3-3-3-3-3----------|
b|-----6-6-6-6-6-6--3-3-3-3-3-3--6-6-6-6-6-6--3-3-3-3-3-3--7--7----|
g|-----7-7-7-7-7-7--3-3-3-3-3-3--7-7-7-7-7-7--3-3-3-3-3-3--7--7----|
d|-5\7-8-8-8-8-8-8--5-5-5-5-5-5--8-8-8-8-8-8--5-5-5-5-5-5--7--7----|
a|-5\7-8-8-8-8-8-8--5-5-5-5-5-5--8-8-8-8-8-8--5-5-5-5-5-5--5--5----|
E|-3\5-6-6-6-6-6-6--3-3-3-3-3-3--6-6-6-6-6-6--3-3-3-3-3-3----------|


Outro

Gtr 1

e|-3-------3--------|
b|-2-------2--------|
g|-3-------3--------|
d|-0-------0--------|
a|-0-------0--------|
E|------------------|

Gtr 2
e|----------------|
b|----------------|
g|----------------|
d|-7p0-5p0-4p0----|
a|----------------|
E|----------------|
Tap to rate this tab
 
# A B C D E F G H I J K L M N O P Q R S T U V W X Y Z