The Living End - For Another Day tab

For Another Day - The Living End
tabbed by: Matt Heal
email: mattheal @ gmail.com

intro /verse / 1st chorus
e|-------------------------------------------------------------------|
b|-------------------------------------------------------------------|
g|-------------------------------------------------------------------|
d|-4-4-4-4-4-4-4-4-4-4--4-4-4-4-4-4-4-4-4-4-4--4-4-4-4-4-4-4-4-4-4---|
a|-x-x-x-x-x-x-x-x-x-x--1-1-1-1-1-1-1-1-1-1-1--2-2-2-2-2-2-2-2-2-2---|
E|-2-2-2-2-2-2-2-2-2-2-----------------------------------------------|

lead bit in chorus


e|-------2-----------|
b|---2------2---2----|
g|-3---3------3------|
d|-------------------|
a|-------------------|
E|-------------------|



Verse last time through palm muted

e|-------------------------------------------------------------------|
b|-------------------------------------------------------------------|
g|-------------------------------------------------------------------|
d|-4-4-4-4-4-4-4-4-4-4--4-4-4-4-4-4-4-4-4-4-4--4-4-4-4-4-4-4-4-4-4---|
a|-x-x-x-x-x-x-x-x-x-x--1-1-1-1-1-1-1-1-1-1-1--2-2-2-2-2-2-2-2-2-2---|
E|-2-2-2-2-2-2-2-2-2-2-----------------------------------------------|

lead bit:

e|------------|
b|-7-7-77-7---|
g|-x-x-xx-x---|
d|-4-4-44-4---|
a|------------|
E|------------|


Chorus:

e|-2-2-2-2-2-2-2-2-2-2-6-6-6-6-6-6-6-6-6-6-7-7-7-7-7-7-7-7-7-7--|
b|-2-2-2-2-2-2-2-2-2-2-6-6-6-6-6-6-6-6-6-6-7-7-7-7-7-7-7-7-7-7--|
g|-3-3-3-3-3-3-3-3-3-3-6-6-6-6-6-6-6-6-6-6-8-8-8-8-8-8-8-8-8-8--|
d|-4-4-4-4-4-4-4-4-4-2-8-8-8-8-8-8-8-8-8-8-9-9-9-9-9-9-9-9-9-9--|
a|-4-4-4-4-4-4-4-4-4-2-8-8-8-8-8-8-8-8-8-8-9-9-9-9-9-9-9-9-9-9--|
E|-2-2-2-2-2-2-2-2-2-2-6-6-6-6-6-6-6-6-6-6-7-7-7-7-7-7-7-7-7-7--|


Bridge (all the one chord all the changes come from the bass)
e|------------------|
b|------------------|
g|-3-3-3-3-3-3-3-3--|
d|-4-4-4-4-4-4-4-4--|
a|-4-4-4-4-4-4-4-4--|
E|-2-2-2-2-2-2-2-2--|
Tap to rate this tab
 
# A B C D E F G H I J K L M N O P Q R S T U V W X Y Z