Song name
# A B C D E F G H I J K L M N O P Q R S T U V W X Y Z

The Living End - Riot On Broadway tab

Help us improve GuitareTab! Take a short survey!
Intro
e|-------------------------------------------------------------------|
B|-------------------------------------------------------------------|
G|---9-9-9--9-9-7--7-7-2-----9-9-9--9-9-7--7-7-2---------------------|
D|---9-9-9--9-9-7--7-7-2-----9-9-9--9-9-7--7-7-2---------------------|
A|---7-7-7--7-7-5--5-5-0-----7-7-7--7-7-5--5-5-0---------------------|
E|-------------------------------------------------------------------|

Verse
e|-------------------------------------------------------------------|
B|-------------------------------------------------------------------|
G|--2--2-2-2-2-2-2-------5-4-------2--2-2-2-2-2-2-------5-4----------|
D|--2--2-2-2-2-2-2-------5-4-------2--2-2-2-2-2-2-------5-4----------|
A|--0--0-0-0-0-0-0-------3-2-------0--0-0-0-0-0-0-------3-2----------|
E|------------------1h3----------------------------1h3---------------|

Pre Verse
e|-------------------------------------------------------------------|
B|----7-------5------7-----------------------------------------------|
G|------7-------5------7---5--5--7-----------------------------------|
D|-------------------------5--5--7-----------------------------------|
A|--5-------3------5-------3--3--5-----------------------------------|
E|-------------------------------------------------------------------|

Chorus
e|-------------------------------------------------------------------|
B|-------------------------------------------------------------------|
G|--7--7----3--3------------------7--7----3--3-----------------------|
D|--7--7----3--3----5--5--5--5----7--7----3--3----5--5--5--5---------|
A|--5--5----1--1----5--5--5--5----5--5----1--1----5--5--5--5---------|
E|------------------3--3--3--3--------------------3--3--3--3---------|

e|-------------------------------------------------------------------|
B|----------------------------3----------------3---------------------|
G|-------------3-3-3-3-----------------------------------------------|
D|--7-7-7-7----3-3-3-3---------------0--3-------------0--3-----------|
A|--7-7-7-7----1-1-1-1----1-------1--------1-------1-----------------|
E|--5-5-5-5----------------------------------------------------------|
Related for Riot On Broadway tab