Song name
# A B C D E F G H I J K L M N O P Q R S T U V W X Y Z

The Living End - Universe tab

solo

e|--10p9--------9-10p9--------9---|
b|-------10-7h10-------10-7h10----|
g|--------------------------------|
d|--------------------------------|
a|--------------------------------|
E|--------------------------------|

e|--10-9---------9-10-9---------9---|
b|-------10-8-10--------10-8-10-----|
g|----------------------------------|
d|----------------------------------|
a|----------------------------------|
E|----------------------------------|

e|--10p9--------9-10p9--------9---|
b|-------10-7h10-------10-7h10----|
g|--------------------------------|
d|--------------------------------|
a|--------------------------------|
E|--------------------------------|


thanks to Matt Heal for this middle section

e|----17-----------17------------------------------|
b|-15----17-19--------19v--------------------------|
g|-------------16v-----------14-----------16-14v---|
d|-----------------------------14-16---------------|
a|-----------------------------------14v-----------|
E|-------------------------------------------------|

and then the last run up and down

e|---------------------------------------------------------------|
b|---------------------------------------------------------15----|
g|-16p14------------------------------14-----14-16----14h16------|
d|-------17-16p14----------14-16-14h16-----16--------------------|
a|----------------17-16h17---------------------------------------|
E|---------------------------------------------------------------|

e|--------15p14---------------|
b|--15h17-------15p17---------|
g|--------------------18-16---|
d|----------------------------|
a|----------------------------|
E|----------------------------|


Chris uses an Electro Harmonix POG2 for the effect but if you have an old Boss OC2, just 
take out all of the low octave and keep a little bit of the other octave for that real 
spacey sound

enjoy!
Tim.
The DieCasts
Tap to rate this tab
 
# A B C D E F G H I J K L M N O P Q R S T U V W X Y Z