Song name
# A B C D E F G H I J K L M N O P Q R S T U V W X Y Z

The Living End - Fly Away tab

Fly Away Solo - The living End

Standard Tuning
Chris Chenney has a lot of expression when he plays, use this tab and add your own soul 
to the song :)


(/) Slide Up  (\) Slide Down  (h) Hammer On  (p) Pull Off  (b) Bend (r) Release (v) Vibrato
t:  Q  Q  Q  Q  Q Q  Q  undefined  Q  Q  Q  Q  Q  undefined  undefined  Q Q Q  Q  Q  Q  undefined
 Q Q  Q  Q  Q  Q  Q  Q  Q  undefined
E|----------------|----------------------|--------------------|----------------------------|-----|
B|----------------|----------------------|--------------------|----------4--5--4-----------|-----|
G|----------------|----------------------|--------------------|-------4-----------6--4-----|-----|
D|----------------|-------------------2--|----4b6b4--2-----2--|--4/6--------------------6--|-----|
A|-----------2----|-------------2--4-----|--------------4-----|----------------------------|-----|
E|--0--2--4-----2b|--0----2--4-----------|--------------------|----------------------------|-----|


t:  Q  Q Q Q Q  Q  Q  Q  Q  Q Q  Q  Q  Q  Q  Q  Q  Q  Q Q  Q  QQ  Q  Q  Q  Q  QQ  Q  Q  
Q  undefined
E|-----------------------|-----------------------------|-------7-------------------------|--|
B|-----------------------|-------2--4--4b4-2----4--2---|----------10h9h7---7-------------|--|
G|--6--------------------|-------2--4--4b4-2----4--2---|--6/8------------9---10h9h7------|--|
D|-----6b7b6p4-----6--5--|--2/4--------------4---------|------------------------------9--|--|
A|--------------7--------|-----------------------------|---------------------------------|--|
E|-----------------------|-----------------------------|---------------------------------|--|


t:  Q  Q  Q  Q  Q  Q QQ QQ  QQ  QQ  QQ  QQ  QQ  Q  QQ  QQ  QQ  QQ QQ QQ QQ  QQ QQ QQ QQ  Q
E|--------------|--7/14b15--12--------------------|---------------------------------------------|
B|--9--7b-------|---------------14b-12------14--12|------12--14--15p14p12p----15p14p12p---------|
G|--9--7b-------|---------------14b-12------14--12|--/13-------------------13-----------13------|
D|--------9--7--|-----------------------14--------|---------------------------------------------|
A|--------------|---------------------------------|---------------------------------------------|
E|--------------|---------------------------------|---------------------------------------------|


t:  QQ QQ QQ  QQ  QQ QQ QQ  QQ  Q  Q  QQ  QQ  QQ  QQ  QQ  QQ  QQ  QQ QQ  QQ  QQ QQ QQ  Q
E|--------------------------------|-------------------------------------14--17/19/17--|--|
B|--15p14p12------15p14p12--------|----------15--16p15------15--16/18-----------------|--|
G|------------13------------13----|------15--------------17---------------------------|--|
D|--------------------------------|--/16----------------------------------------------|--|
A|--------------------------------|---------------------------------------------------|--|
E|--------------------------------|---------------------------------------------------|--|



E|----------------------------------|
B|---------12---------10--9--8--7---|
G|----------------------------------|
D|--11/13------13\11------9--8--7---|
A|----------------------------------|
E|----------------------------------|


Tabbed by Matt Delahoussaye

This has been painstakingly worked out from listening to every note. The notes in this 
tab are correct, but the tab grammar is not.
Please listen to the song for the small bends and accents to get them right, I am sure 
you will get it eventually :)
Please rate and share!!
Tap to rate this tab
# A B C D E F G H I J K L M N O P Q R S T U V W X Y Z