Guitaretab - guitar tabs
Song name
# A B C D E F G H I J K L M N O P Q R S T U V W X Y Z

The Living End - What Would You Do tab

-------------------------------------------------------------------------------
			     What Would You Do - Living End
-------------------------------------------------------------------------------
Tabbed by:Kurtd121

um, the other tabs for this were a little off, i thought id give it a shot.
besides the solo its just power chords, and there's a wammy bar in the solo,
but this is pretty accurate. enjoy

Tuning:standard

Verse:
	
E:|---------------------------------|
B:|---------------------------------|
G:|-7-7-7-7-7-7-7-7-7-7-7-7-7-7-7-7-|x2
D:|-7-7-7-7-7-7-7-7-7-7-7-7-7-7-7-7-|
A:|-5-5-5-5-5-5-5-5-5-5-5-5-5-5-5-5-|
E:|---------------------------------|

E:|-----------------------------------------------------------------|
B:|-----------------------------------------------------------------|
G:|-----------------------------------------2-2-2-2-7-7-7-7-7-7-7-7-|
D:|-5-5-5-5-5-5-5-5-2-2-2-2-2-2-2-2-5-5-5-5-2-2-2-2-7-7-7-7-7-7-7-7-|
A:|-5-5-5-5-5-5-5-5-2-2-2-2-2-2-2-2-5-5-5-5-0-0-0-0-5-5-5-5-5-5-5-5-|
E:|-3-3-3-3-3-3-3-3-0-0-0-0-0-0-0-0-3-3-3-3-------------------------|

Chorus:

E:|-----------------------------------------------------------------|
B:|-----------------------------------------------------------------|
G:|-----------------2-2-2-2-2-2-2-2-7-7-7-7-7-7-7-7-4-4-4-4-4-4-4-4-|
D:|-2-2-2-2-2-2-2-2-2-2-2-2-2-2-2-2-7-7-7-7-7-7-7-7-4-4-4-4-4-4-4-4-|
A:|-2-2-2-2-2-2-2-2-0-0-0-0-0-0-0-0-5-5-5-5-5-5-5-5-2-2-2-2-2-2-2-2-|
E:|-0-0-0-0-0-0-0-0-------------------------------------------------|
[ Tab from: http://www.guitaretab.com/t/the-living-end/46567.html ]
E:|-----------------------------------------------------------------|
B:|-----------------------------------------------------------------|
G:|-----------------2-2-2-2-2-2-2-2---------2-2-2-2-7-7-7-7-7-------|
D:|-2-2-2-2-2-2-2-2-2-2-2-2-2-2-2-2-5-5-5-5-2-2-2-2-7-7-7-7-7-------|
A:|-2-2-2-2-2-2-2-2-0-0-0-0-0-0-0-0-5-5-5-5-0-0-0-0-5-5-5-5-5-------|
E:|-0-0-0-0-0-0-0-0-----------------3-3-3-3-------------------------|

Solo:

E:|---------------------------------|
B:|-7-7-5-5-3-3-2-2-3-3-2---2-------|
G:|-7-7-6-6-4-4-2-2-4-4-2---2-------|x2
D:|---------------------------------|
A:|---------------------------------|
E:|---------------------------------|

E:|-----------------0---------------------------------------10------|
B:|-----------------0---------------------------------------10------|
G:|-----------------0-----------------------------------------------|
D:|-----------------2----------------------------------/12----------|
A:|-4-5-5-4-5-5-5-5-2-------------------2-5-----4-7-5---------------|
E:|-2-3-3-2-3-3-3-3-0---------------3-------5-----------------------|

Outro:

E:|-----------------------------------------------------------------|
B:|-----------------------------------------------------------------|
G:|---------2-2-2-2-7-7-7-7-7-7-7-7---------2-2-2-2-2-2-2-2-2-2-2-2-|
D:|-5-5-5-5-2-2-2-2-7-7-7-7-7-7-7-7-5-5-5-5-2-2-2-2-2-2-2-2-2-2-2-2-|
A:|-5-5-5-5-0-0-0-0-5-5-5-5-5-5-5-5-5-5-5-5-0-0-0-0-0-0-0-0-0-0-0-0-|
E:|-----------------------------------------------------------------|

E:|-----------------------------------------------------------------|
B:|-----------------------------------------------------------------|
G:|-----------------------------------------2-2-2-2-7-7-7-7-7-------|
D:|-9-------------------------------5-5-5-5-2-2-2-2-7-7-7-7-7-------|
A:|-9-------------------------------5-5-5-5-0-0-0-0-5-5-5-5-5-------|
E:|-7-------------------------------3-3-3-3-------------------------|

Order:
Verse x2
Chorus
Verse
Solo
Chorus
Verse
Outro

| /  slide up
| \  slide down
| h  hammer-on
| p  pull-off
| ~  vibrato
| +  harmonic
| x  Mute note
===============================================================================
Related for What Would You Do tab
Advertisement will be closed in 10 seconds