Song name
# A B C D E F G H I J K L M N O P Q R S T U V W X Y Z

The Living End - Whats On Your Radio tab

Alright first off.  I did not tab this.
I just sent it in.  It was originally tabbed by Jason Zarpellon.

       WHAT'S ON YOUR RADIO

/= slide up
\= silde down
h= hammer on
p= pull off
b= half bend
^= full bend
^^= bend 2 frets 
v= bring bend down
pm= palm mute
x= dead note


Intro: Slight delay effect

e---12-12-12---12-12-12---12-12-12---12---12--12-12-12---12---|
b---x--x--x----x--x--x----x--x--x----x----x---x--x--x----x----|
g---9--9--9----9--9--9----9--9--9----9----9---9--9--9----9----|
d-------------------------------------------------------------| x3
a-------------------------------------------------------------|
e-------------------------------------------------------------|



Pre Verse:

e----------------------------|
b----------------------------|
g--9----------9---5--4--7----|
d--9----------9---5--4--7----|
a--7--7-7-7-7-7---3--2--5----|
e--0--0-0-0-0-0--------------|
      pm.....



Verse: Sounds like he's doing this on the track, but live he just
       plays a normal E barre chord. Do what you want.

e--12---------12----------------|
b--x----------x-----------------|
g--9----------9-----------------|
d--9--9-9-9-9-9--9-9-9-9-9-9----| Repeat as needed
a-------------------------------|
e-------------------------------|
      pm.....    ...........
"What's your problem, 
what's on your mind..."



Pre Chorus:

e--------------------------------------|
b--------------------4---4--4--4--4----|
g--4----2-4----2-4---4---4--4--4--4----|
d--4----2-4----2-4---4---4--4--4--4----|
a--2----0-2----0-2---2---2--2--2--2----|
e--------------------------------------|
"You've got your problems,
well I've got mine..."



Chorus:

e--7----------7--------------------|-----|
b--8----------8--------------------|--7--|
g--9----------9--------------------|--7--|
d--9----------9---------------(x3)-|--7--|
a--7--7-7-7-7-7--7-7-7-7-7-7-------|--5--|
e--0--0-0-0-0-0--0-0-0-0-0-0-------|-----|
      pm.....    ...........
"What's on your radio..."


e--7----------7--------------------|-----------5------------3-2--3----------------------|
b--8----------8--------------------|--7----7-----7--------5--------5--------------------|
g--9----------9--------------------|--7--7---7-----7----5-------------5--5--5--5--5--5--|
d--9----------9---------------(x3)-|--7--------------7--5-------------7--7--7--7--7--7--|
a--7--7-7-7-7-7--7-7-7-7-7-7-------|--5-----------------3-------------7--7--7--7--7--7--|
e--0--0-0-0-0-0--0-0-0-0-0-0-------|----------------------------------5--5--5--5--5--5--|
      pm.....    ...........


Pre Verse

Verse

Pre Chorus

Chorus

Solo: Rythym plays Am, E


Fast, with Delay effect

e--------0-------0-------0---------0--------0---------0----------0----------0--|
b--5h6h7---6h7h8---7h8h9---9h10h11---8h9h11---9h11h12---10h11h12---11h12h13----|
g------------------------------------------------------------------------------|
d------------------------------------------------------------------------------|
a------------------------------------------------------------------------------|
e------------------------------------------------------------------------------|

e--12-12-10-12-12-12-10-12-12-12-10-12-12-12-10--/12-12-12-12---------------------------------------/--|
b--13-13-12-13-13-13-12-13-13-13-12-13-13-13-12---------------12-12-12-12---------------------------/--|
g-------------------------------------------------------------------------9-9-9-9-------------------/--|
d---------------------------------------------------------------------------------8-8-8-8-9-9-9-9\--/--|
a---------------------------------------------------------------------------------------------------/--|
e---------------------------------------------------------------------------------------------------/--|

e--------------------------10------10------10--10-12--------10---------------------|
b--------------------------12p0----12p0----12--12/13--11h12----12~-12\------8------|
g----7-----7-----7---9~---------12------12------------------------------7h9---9~\--|
d----9p0---9p0---9--10~------------------------------------------------------------|
a--0-----0-----0-------------------------------------------------------------------|
e----------------------------------------------------------------------------------|
  pm   ...   ...

e-----------------------------------------------------------------------------11---|
b--12h13p12----------------12--------------------------13-12~--------------13-12---|
g--11-------14p12p11----------14p12p11-----------11h12---------------11h12---------|
d--------------------14p12-------------14p12-/13-----------------/13---------------|
a----------------------------------------------------------------------------------|
e----------------------------------------------------------------------------------|

e---------------11-----------------11--12--13--14--16b~----|
b------------13-12--------------13-12--13--14--15--17b~----|
g------11h12--------------11h12----------------------------|
d--/13----------------/13----------------------------------|
a----------------------------------------------------------|
e----------------------------------------------------------|


Bridge is basically Pre Verse and Chorus. 
You have everything you need up there.


Finish on:

e-----------------------------|
b-----------------------------|
g--9----------9---5--4--7-----|
d--9----------9---5--4--7--2--|
a--7--7-7-7-7-7---3--2--5--2--|
e--0--0-0-0-0-0------------0--|
      pm.....
     

Tabbed by Jason Zarpellon
jason_zarps@hotmail.com
www.thelivingendtabpage.cjb.net
Tap to rate this tab
 
# A B C D E F G H I J K L M N O P Q R S T U V W X Y Z