Song name
# A B C D E F G H I J K L M N O P Q R S T U V W X Y Z

The Living End - Second Impact tab

----------------------------second-impact----------------------------------
h = Hammer on
p = pull off
() = bend up to note

This is one of my first tabs so sorry if i get it wrong. The solo is preety
acurate i think but if its not your'e welcome to change it. This is a preet
unreconised band but i think more people should listen to their music. its
awesome!


intro

e---------------------------------------------------------------------------|
b---------------------------------------------------------------------------|
g---------------------------------------------------------------------------|
d--4-4-4-4-----------7-7-7-7-----------------------------------------x4-----|
a--2-2-2-2--5-5-5-5--5-5-5-5--7-7-7-7---------------------------------------|
E-----------3-3-3-3-----------5-5-5-5---------------------------------------|


Verse/Chorus
e---------------------------------------------------------------------------|
b---------------------------------------------------------------------------|
g---------------------------------------------------------------------------|
d--4-4-4-4-----------7-7-7-7-----------------------------------------x4-----|
a--2-2-2-2--5-5-5-5--5-5-5-5--7-7-7-7---------------------------------------|
E-----------3-3-3-3-----------5-5-5-5---------------------------------------|

Pre chorus

e---------------------------------------------------------------------------|
b---------------------------------------------------------------------------|
g---------------------------------------------------------------------------|
d---------------------------------------------------------------------------|
a--2-2-2-2-2-2-2-2--5-5-5-5-5-5-5-5--2-2-2-2-2-2-2-2--3-3--7-7--------------|
E--0-0-0-0-0-0-0-0--3-3-3-3-3-3-3-3--0-0-0-0-0-0-0-0--5-5--5-5--------------|

Interlude

e---------------------------------------------------------------------------|
b---------------------------------------------------------------------------|
g---------------------------------------------------------------------------|
d--------------------------------------------------------------------x2-----|
a--5-x-x-x-x-x--2-2-2-2-2-2-2-----------------------------------------------|
E--3-x-x-x-x-x--0-0-0-0-0-0-0-----------------------------------------------|

Solo

e--12/19-19-19-17h-19-19-19-17h-19-17-14-17-14-12-12-14p-12-10-12p-9-10p-9--|
b---------------------------------------------------------------------------|
g---------------------------------------------------------------------------|
d---------------------------------------------------------------------------|
a---------------------------------------------------------------------------|
E---------------------------------------------------------------------------|

e--10p-9---------10--------------------10--------------10--------------10---|
b--------9/12-12----12-12-10-10h-12-12----12-10h-12-12----12-10h-12-12------|
g---------------------------------------------------------------------------|
d---------------------------------------------------------------------------|
a---------------------------------------------------------------------------|
E---------------------------------------------------------------------------|


e--12/13-12-10h-12-10-----------10--------------10--------------10----------|
b---------------------10h-12-12----12-10h-12-12----12-10h-12-12-------------|
g---------------------------------------------------------------------------|
d---------------------------------------------------------------------------|
a---------------------------------------------------------------------------|
E---------------------------------------------------------------------------|

e--12-12/13-12-10h-12-10------------------0------------------0---------------|
b------------------------12p10p9p10p9p7p9p--12p10p9p10p9p7p9p----------------|
g----------------------------------------------------------------------------|
d----------------------------------------------------------------------------|
a----------------------------------------------------------------------------|
E----------------------------------------------------------------------------|

e----------------------------------------------------------------------------|
b12p10p9p10p9p7p9p5p7p4p5p4p5p4p5p4p5p4p0-0-3p05p03p0-03p5p3p0-03p05p06p05p0-|
g----------------------------------------------------------------------------|
d----------------------------------------------------------------------------|
a----------------------------------------------------------------------------|
E----------------------------------------------------------------------------|

e-------------------------------------------------------2-------------------|
b--3p05p03p0-0-3p05p03p0-03p5p3p0-0-2-3-3/5-3-2h3p2h3p2-0-------------------|
g---------------------------------------------------------------------------|
d---------------------------------------------------------------------------|
a---------------------------------------------------------------------------|
E---------------------------------------------------------------------------|


Outro

e--7-9-7-9-9/10-9-7---------------------------------------------------------|
b--7-7-7-7-7----7-7-9-7-----------------------------------------------------|
g-----------------------9(11)/0---------------------------------------------|
d-------------------------------4-------------------------------------------|
a-------------------------------2-------------------------------------------|
E---------------------------------------------------------------------------|


Order

Intro
Verse 1
Pre Chorus
Chorus
Interlude
Verse 2
Pre Chorus
Chorus
Interlude
Solo
Drum solo
Verse 3
Outro

Billabongs_69@hotmail.com
Tap to rate this tab
# A B C D E F G H I J K L M N O P Q R S T U V W X Y Z