Song name
# A B C D E F G H I J K L M N O P Q R S T U V W X Y Z

The Living End - Into The Red tab

                                    INTO THE RED


/= slide up
\= slide down
p= pull off
h= hammer on
b= half bend
^= full bend
^^= bend 2 frets
v= bring bend down
pm= palm mute
~= vibrado



Intro:

e----------------------------------------------------------|
b----------------------------------------------------------|
g--4-4-4-4-4---4---4-4-4--2--3--4--4-4-4-4---4-------2--3--|
d--4-4-4-4-4---4---4-4-4--2--3--4--4-4-4-4---4----\--2--3--|
a--2-2-2-2-2p0-2p0-2-2-2--0--1--2--2-2-2-2p0-2p0--\--0--1--|
e-------------------------------------------------\--------|


e--------------------------------------------------------------|
b--------------------------------------------------------------|
g--4--4-4-4-4---4---4-4-4--2--3--4--4-4-4-4---4---4-4-4--2--3--|
d--4--4-4-4-4---4---4-4-4--2--3--4--4-4-4-4---4---4-4-4--2--3--|
a--2--2-2-2-2p0-2p0-2-2-2--0--1--2--2-2-2-2p0-2p0-2-2-2--0--1--|
e--------------------------------------------------------------|



Verse:

e--------------------------------------------------------------|
b--------------------------------------------------------------|
g--4--4---4---4---4---4---4---4---4---4---4---4---4---4--2--3--|
d--4--4-4-4-4-4-4-4-4-4-4-4-4-4-4-4-4-4-4-4-4-4-4-4-4-4--2--3--| x3
a--2--2-2-2-2-2-2-2-2-2-2-2-2-2-2-2-2-2-2-2-2-2-2-2-2-2--0--1--|
e--------------------------------------------------------------|
      pm...............................................


e--------------------------------------------------|
b--------------------------------------------------|
g--4--4---4---4---4---4---4---4-4-4-4-4-4-4-4-4p0--|
d--4--4-4-4-4-4-4-4-4-4-4-4-4-4-4-4-4-4-4-4-4-4p0--|
a--2--2-2-2-2-2-2-2-2-2-2-2-2-2-2-2-2-2-2-2-2-2p0--|
e--------------------------------------------------|
      pm.....................                       



Pre Chorus:

e-------0-------------------------------------------------------------|
b-------0-------------------------------------------------------------|
g-2-4---1---4---6--6-6-6-6-6-------9--------------------------7-------|
d-2-4---2---4---6--6-6-6-6-6--7-9--9--9--7--7-7-7-7-7-7----7--7--7----|
a-0-2---2---2---4--4-4-4-4-4--7-9--7--9--7--7-7-7-7-7-7--7-7--5--7----|
e-------0---------------------5-7--0--7--5--5-5-5-5-5-5--0-5-----5----|
                   

e--2----0----2-------------------|
b--2----0----3----2--------------|
g--2----1----2----2--------------|
d--4----2----0----2--------------|
a--4----2---------0--------------|
e--2----0--------------4-4bv~-0--|



Chorus:

e--2--2-2-2-2---0---0--2--2--2--------|--2--2-2-2-2---0---0------------|
b--2--2-2-2-2---0---0--3--3--3--------|--2--2-2-2-2---0---0------------|
g--2--2-2-2-2---1---1--2--2--2--------|--2--2-2-2-2---1---1------------|
d--4--4-4-4-4-0-2---2--0--0--0--(x2)--|--4--4-4-4-4-0-2---2-2-2-2-2-2--|
a--4--4-4-4-4-0-2---2-----------------|--4--4-4-4-4-0-2---2-2-2-2-2-2--|
e--2--2-2-2-2-0-0---0-----------------|--2--2-2-2-2-0-0---0-0-0-0-0-0--|



Post Chorus:

e------------------------------|
b--7b--7-7---7-7---7-----------|
g--7b--7-7---7-7---7-----2--3--|
d----------9-----9---9~--2--3--|
a------------------------0--1--|
e------------------------------|


Verse

Pre Chorus

Chorus

Pre Solo:

e---------------------------------------------------|
b--7---7-7---7-7---7-------------7----7-7---7-9^v^--|
g--7---7-7---7-7---7-------7--8--7----7-7---7-9^v^--|
d----9-----9-----9---9~----7--8--9--9-----9---------|
a--------------------------5--6--7------------------|
e---------------------------------------------------|
                                              (Bend up, release and then slowly bend up again)


Solo: Rythym plays verse

e----------------------------------------------------------------------------7--|
b--7---7---7---7-7-7-7---7-7-------------------------------------------------7--|
g--7b--7b--7b--7-7-7-7b--b-b---------------------------------------------7h9----|
d----------------------------9~--12p9----9-12p9----9-12p9----9-12p9----9--------|
a-------------------------------------12--------12--------12--------12----------|
e-------------------------------------------------------------------------------|
                       (hold bend)

e--7----7-7---7-7-7---7-7-7---7-7-7---7-7-7---7-7-7---7-7-10p7-7-10b--|
b--7----7-7---7-7-7---7-7-7---7-7-7---7-7-7---7-7-7---7-7--9p7-7--9b--|
g--9^^----9^^-----9^^-----9^^-----9^^-----9^^-----9^^-----------------|
d---------------------------------------------------------------------|
a---------------------------------------------------------------------|
e---------------------------------------------------------------------|

e--14------14------14-----14-14-14-14-14-14-14-14-14-14-14----------------|
b--15^-----15^-----15^----15^-^--^--^--^--^--^--^--^--^-15^v-\------------|
g-------16------16-----16------------------------------------\------------|
d------------------------------------------------------------\------------|
a-------------------------------------------------------------------------|
e-----------------------------------------------------------------/10^^~--|
                            (Hold bend)

e--------------------------------------|--------------------------------------------------|
b--9-----------------------------------|--------------------------------------------------|
g--9---9-9-9-9-9--1--------------------|--9--9--------9--9--------9-----9-----9-----2--3--|
d--9---9-9-9-9-9--2---2-2-2-2-2--(x2)--|--9--9--2--2--9--9--2--2--9--2--9--2--9--2--2--3--|
a--7---7-7-7-7-7--2---2-2-2-2-2--------|--7--7--2--2--7--7--2--2--7--2--7--2--7--2--0--1--|
e-----------------0---0-0-0-0-0--------|--------0--0--------0--0-----0-----0-----0--------|


Intro

Verse 

Chorus

Outro:

e---------------------------------------------------|
b---------------------------------------------------|
g--7----9----7----9--7/9-9--7----9----7----9--2--3--|
d--7----9----7----9--7/9-9--7----9----7----9--2--3--|
a--5----7----5----7--5/7-7--5----7----5----7--0--1--|
e-----0----0----0--------------0----0----0----------|



Ending:

Rythym
e-----------------------------------------------------------------|
b-----------------------------------------------------------------|
g--4---------------------2--3--4----------------------------4-----|
d--4---------------------2--3--4----------------------------4-----|
a--2---------------------0--1--2----------------------------2-----|
e-----------------------------------------------------------------|

Lead
e------------------------------------7----------------------------|
b--7b----7-7---7-7---7----------7---------------------------------|
g--7b----7-7---7-7---7----------9^^----9p7---7--------------------|
d------9-----9-----9---9~------------------9---9-7----------------|
a--------------------------------------------------9-8-7----------|
e--------------------------------------------------------10-7~----|


Tabbed by Jason Zarpellon
jason_zarps@hotmail.com
www.thelivingendtabpage.cjb.net


Tap to rate this tab
# A B C D E F G H I J K L M N O P Q R S T U V W X Y Z