Song name
# A B C D E F G H I J K L M N O P Q R S T U V W X Y Z

The Living End - We Want More tab

Highlighted       Show chord diagrams
(1)
e--------------------------------------------------------------|
b--2-2-2--2-2-2--2-2-2--2-2-2--2-2-2--2-2-2--2-2-2--2-2-2------|
g--4-4-4--4-4-4--4-4-4--4-4-4--4-4-4--4-4-4--4-4-4--4-4-4------|
d--3-3-3--3-3-3--3-3-3--3-3-3--3-3-3--3-3-3--3-3-3--3-3-3------|
a--4-4-4--4-4-4--4-4-4--4-4-4--4-4-4--4-4-4--4-4-4--4-4-4------|
e--------------------------------------------------------------|

F#5 F#5 F#5 F#5 D5 D5 D5 D5
F#5 F#5 F#5 F#5 D5 D5 D5 D5
F#5 F#5 F#5 F#5 D5 D5 D5 D5
F#5 F#5 E5 E5 F#5 F#5 F#5 F#5

V:
intro x2

Pre CH:                                                                      3
B5 B5 B5 B5 B5 B5 B5 
D5 D5 D5 D5 (E'5E'5E'5) E'5.

CH:
F#5 F#5 F#5 A5 D5 D5 D5 D5
F#5 F#5 F#5 A5 D5 D5 D5 D5
F#m F#m F#m F#m C#m C#m 
C#m C#5/D5 C#5/D C#5/D C#5/D
F#m. F#m. F#m. F#m. C#m. C#m. 
C#m. D5. D5. D5. C#m C#m 1 1 (see rhythm)

interlude

V: F#5 F#5 F#5 F#5 D5 D5 
D5 x3 F#5 F#5 E5 E5 F#5 F#5 
F#5 x2

Pre CH: B5 B5 B5 B5 B5 B5 
C#5 D5 D5 D5 D5 (E'5E'5E'5) E'5.

CH: F#5 F#5 F#5 A5 D5 D5 
D5 x2
F#m F#m F#m F#m C#m C#m 
C#m C#5/D5 C#5/D C#5/D C#5/D
F#m. F#m. F#m. F#m. C#m. C#m. 
C#m. D5. D5. D5. D5.

Solo

(1)
e----------------------------------------------------------|
b--2-2-2--2-2-2--2-2-2--2-2-2--2-2-2--2-2-2--2-2-2--2-2-2--|
g--4-4-4--4-4-4--4-4-4--4-4-4--4-4-4--4-4-4--4-4-4--4-4-4--|
d--3-3-3--3-3-3--3-3-3--3-3-3--3-3-3--3-3-3--3-3-3--3-3-3--|
a--4-4-4--4-4-4--4-4-4--4-4-4--4-4-4--4-4-4--4-4-4--4-4-4--|
e----------------------------------------------------------|

V: only one guitar nothing else for first half, second half normal

CH:
F#5 F#5 F#5 A5 D5 D5 D5 D5
F#5 F#5 F#5 A5 D5 D5 D5 D5
F#m F#m F#m F#m C#m C#m 
C#m C#5/D5 C#5/D C#5/D C#5/D
( F#m. F#m. F#m. F#m. C#m. C#m. 
C#m. D5. D5. D5. )
F#m. F#m. F#m. F#m. C#m. C#m. 
C#m. D5. D5. D5. C#m C#m 1 1 (see rhythm)


Lyrics

V1:
rotten the core
breakin' down the door
sick of all the laws
and we want more
everyone's so pretty
livin' in the city
drownin' in their pity
and we want more

pre CH:
did you forget about us
did you forget about trust
Out with the old
and in with the new

CH:
you haven't earned it (you haven't earned it)
you don't deserve it (you don't deserve it)
(dadadada da dada
dada da dadadadaaaa)
every dog has it's day
(dadadada da dada
dada da dadadadaaaa)
     C#m                            C#m                      1  1
so what are you gonna do when they take it away from you

interlude (F# F# F# F# F# F# 
F# on 1 guitar)

V2:
makin' up the rules
foolin' all the fools
like you got nothin' to lose
and we want more
you only get out what you put in
you want your supper but you don't want sin
you live in a lie, you know it's not right
we want more

pre CH

CH

Solo

1 1 1 1 1 1 1 1

V1 (first half just voice and one guitar):
rotten the core
breakin' down the door
sick of all the laws
and we want more
everyone's so pretty
livin' in the city
drownin' in their pity
and we want more

pre CH

CH:
you haven't earned it (you haven't earned it)
you don't deserve it (you don't deserve it)
(dadadada da dada
dada da dadadadaaaa)
every dog has it's day
and they're never gonna give you what you want
no they're never gonna give you what you want
     C#m                                  C#m                        1       1
so what are you gonna do when they take it away from you
Tap to rate this tab
# A B C D E F G H I J K L M N O P Q R S T U V W X Y Z