Guitaretab - guitar tabs
Song name
# A B C D E F G H I J K L M N O P Q R S T U V W X Y Z

The Living End - Nowhere Town tab

e|-----------------|-----------------|
B|-----------------|-----------------|
G|-----------------|-----------------|
D|-----------------|-----------------|
A|----8--7---8---7-|----7--5---7---5-|
E|-5------5---5--5|--4------4---4--4|
                                          Part 1
e|-----------------|-----------------|
B|-----------------|-----------------|
G|-----------------|-----------------|
D|-----------------|-----------------|
A|---7--5---7---5--|----5--3---5---3-|
E|-3------3---3---3|--2------2---2--2|
____________________________________________________
e|------------------------------------|
B|------------------------------------|
G|--9---7---5---3---------------------|
D|--x---x---x---x---------------------|
A|--7---5---3---2---------------------|
E|------------------------------------|

Repeat part1
then

e|-----------------|
B|-----------------|
G|-------------7---|
D|--------6--9---9-|
A|--7-5-7----------|
E|-----------------|

soz thats all i have for now but also look for the solo i tabbed!
[ Tab from: http://www.guitaretab.com/t/the-living-end/78784.html ]
Related for Nowhere Town tab