Song name
# A B C D E F G H I J K L M N O P Q R S T U V W X Y Z

The Living End - Wrong Side Of The Tracks tab

Help us improve GuitareTab! Take a short survey!
----WRONG SIDE OF THE TRACKS----

/ = slide up
\ = silde down
p = pull off
h = hammer on
b = half bend
^^ = bend two frets
^ = bend one fret
v = bring bend down
pm = palm mute

This is off of the "What's On Your Radio" Single...
This is another good song by The Living End.... not one of my Faves... but deffinatley a good song!


Intro/Verse:
e------------------------------------------------------------------------------------|--3--3--|
b------------------------------------------------------------------------------------|--5--3--|
g--5--------------------------------------------------------3-2-3--------------------|--5--4--|
d--5--------------------------------------------------------3-2-3-(repeat as needed)-|--5--5--|
a--3----0-1-1-0-1-3-3---0-1-1-0-1-3-3---0-1-1-0-1-3-3---0-1-1-0-1--------------------|--3--5--|
e-----3---------------3---------------3---------------3------------------------------|-----3--|
      pm...................................................


Chorus:

e--4--4-4-4-4-4-4----------------|
b--4--4-4-4-4-4-4----------------|
g--5--5-5-5-5-5-5--8--7--8--8----|
d--6--6-6-6-6-6-6--8--8--8--8----| x4
a--6--6-6-6-6-6-6--6--6--6--6----|
e--4--4-4-4-4-4-4----------------|
I never wanted to be on my own...


e------------------------------------------------------------------------------|
b--4-4-4-4-4-4-4-4--6-6-6-6-6-6-6-6--6-6-6-6-6-6-6-6---8--8--8--8--8--8--8--8--|
g--5-5-5-5-5-5-5-5--7-7-7-7-7-7-7-7--7-7-7-7-7-7-7-7---8--8--8--8--8--8--8--8--|
d--6-6-6-6-6-6-6-6--8-8-8-8-8-8-8-8--9-9-9-9-9-9-9-9--10-10-10-10-10-10-10-10--|
a--6-6-6-6-6-6-6-6--8-8-8-8-8-8-8-8--8-8-8-8-8-8-8-8--10-10-10-10-10-10-10-10--|
e------------------------------------------------------------------------------|
I needed someone like you...


e--4----------|
b--4----------|
g--5----8--7--|
d--6----8--8--|
a--6----6--6--|
e--4----------|


Verse: Same as before, but lead up to Chorus is

e---------------------------------|
b---------------------------------|
g--5\--------3-2-3-5\------x-x-x--|
d--5\--------3-2-3-5\------x-x-x--|
a--3\--------1-0-1-3\------x-x-x--|
e--------------------------x-x-x--|
If you want me here with you then here I stay...


Chorus


Solo:
Rythym
e----------------------------------------------------------------|
b----------------------------------------------------------------|
g----------------------------------5--------------5-5------------|
d--7-------------------------------5--------------5-5------------| x3
a--7--7-----7----5/7--7-----7------3----0-1-1-0-1-3-3---0-1-1p0--|
e--5----8p5---8--3/5----8p5---8p5-----3---------------3----------|


e----------------------------------------------------------------------|
b----------------------------------------------------------------------|
g----------------------------------------------------------------------|
d--7-------------------------------------------------------------------| 
a--7--7-----7----5/7--7-----7------5/7--7-----7------5/7--7-----7------|
e--5----8p5---8--3/5----8p5---8p5--3/5----8p5---8p5--3/5----8p5---8p5--|


e----------------------------------|
b----------------------------------|
g----------------------------------|
d----------------------------------|
a--5/7--7-----7-----7-----7-----7--|
e--3/5----8p5---8p5---8p5---8p5----|


Lead
e-----------------------------------------------------------------------------------------------|
b------------------------------------12----12--12--12--12--12--12--12--12--12--12--12--12--12---|
g-----9------9----------9------9-----14^^--14v-14v-14v-14v-14v-14v-14v-14v-14v-14v-14v-14v-14v--|
d--7----10p7---10--5/7----10p7---10-------------------------------------------------------------|
a-----------------------------------------------------------------------------------------------|
e-----------------------------------------------------------------------------------------------|
                                            Gradually release the bend

e------------------------------------11----11----11----11----11-----|
b------------------------------------10^-8-10^-8-10^-8-10^-8-10^----|
g-----9------9----------9------9------------------------------------|
d--7----10p7---10--5/7----10p7---10---------------------------------|
a-------------------------------------------------------------------|
e-------------------------------------------------------------------|


e------------------------------------13^^--13^^v-13p11-13p11----11---------------------------------------|
b------------------------------------------------------------13----13p11-13p11---------------------------|
g-----9------9----------9------9-----------------------------------------------12p10----10---------------|
d--7----10p7---10--5/7----10p7---10--------------------------------------------------10----13b-10----10--|
a-------------------------------------------------------------------------------------------------13-----|
e--------------------------------------------------------------------------------------------------------|


e------------------------------------------------------------------------|
b------------------------------------------------------------------------|
g-----9------9----------9------9----------9------9----------9------9-----|
d--7----10p7---10--5/7----10p7---10--5/7----10p7---10--5/7----10p7---10--|
a------------------------------------------------------------------------|
e------------------------------------------------------------------------|


e--------------------------------------|
b--------------------------------------|
g-------9------9------9------9------9--|
d--5/7----10p7---10p7---10p7---10p7----|
a--------------------------------------|
e--------------------------------------|



Bridge:

e----------------------------------3--3-3-3-3-3--3--3-3-3-3-3-3-3--|
b--5--5-5-5-5-5--7--7-7-7-7-7-7-7--4--4-4-4-4-4--6--6-6-6-6-6-6-6--|
g--5--5-5-5-5-5--7--7-7-7-7-7-7-7--5--5-5-5-5-5--5--5-5-5-5-5-5-5--|
d--5--5-5-5-5-5--5--5-5-5-5-5-5-5--5--5-5-5-5-5--5--5-5-5-5-5-5-5--|
a--3--3-3-3-3-3--3--3-3-3-3-3-3-3--3--3-3-3-3-3--3--3-3-3-3-3-3-3--|
e------------------------------------------------------------------|


e----------------------------------------|
b----------------------------------------|
g--5-6--10--11--12--15--16-17--17--17----|
d--x-x--x----x---x---x---x--x---x---x----|
a--3-6--8----9--10--13--14-15--15--15----|
e----------------------------------------|


Chorus


Outro:

e---------------------------------------|-------------|
b---------------------------------------|-------------|
g---------------------------------------|--5-5-5-5----|
d--5-5--------------(repeat as needed)--|--5-5-5-5----|
a--3-3---0-1-1-0-1----------------------|--3-3-3-3----|
e------3--------------------------------|-------------|

Good stuff!
Tabbed By Moonpie/Mikey B
Related for Wrong Side Of The Tracks tab