Song name
# A B C D E F G H I J K L M N O P Q R S T U V W X Y Z

The Living End - Order Of The Day tab

                            ----The Living End----
                            ---Order Of The Day---

#----------------------------------PLEASE NOTE--------------------------------#
#This file is the author's own work and represents their interpretation of the#
#song. You may only use this file for private study, scholarship, or research.#
#-----------------------------------------------------------------------------#





Tabbed by: mucho-mum
Date: 29th May Monday 2007....1:48PM

Ok, This song is pretty easy.... Im surprised that no one has tabbed it yet.... So i 
to be the first.....This song is off the
"State Of Emergency Album"....and AWAY WE GO..... Parts of this song are difficult though!

----------------------
| /  slide up
| \  slide down
| h  hammer-on
| p  pull-off
| ~  vibrato
| +  harmonic
| x  Mute note
| ^  Bend half note
| ^^ Bend full note
----------------------

(DRUMS INTRO)

Intro:

E-2---------------0-------------------2--------------------|
B-2---------------0-------------------2--------------------|
G-2---------------1-------------------2--------------------|
D-4---------------2-------------------4--------------------|
A-4---------------2-------------------4--------------------|
E-2---------------0-------------------2--------------------|

E-2-------0-------------------------------------|
B-2-------2-------------------------------------|
G-0-------2-----4-------------------------------|
D-0-------2-----4-4-4-4-4-4-4-4-4-4-4-4-4-4-4-4-|
A-2-------0-----2-2-2-2-2-2-2-2-2-2-2-2-2-2-2-2-|
E-3---------------------------------------------|


Verse:
The first part of this verse starts off with just this:

E-------------------------------------|
B-------------------------------------|
G-4-----------------------------------|
D-4-4-4-4-4-4-4-4-4-4-4-4-4-4-4-4-----|
A-2-2-2-2-2-2-2-2-2-2-2-2-2-2-2-2-----|
E-------------------------------------|

Then it goes into...

Guitar 1:

E--------------------------------------------------------------|
B--------------------------------------------------------------|
G--6-----4------------6------4---------------6------4----------|
D------------4----------------------4--------------------4-----|
A--------------------------------------------------------------|
E--------------------------------------------------------------|

Guitar 2:

E---------------------------------------------------------------|
B---------------------------------------------------------------|
G-4-----------------------------------7-------------------------|
D-4-4-4-4-4-4-4-4-4-4-4-4-4-4-4-4-----7-7-7-7-7-7-7-7-7-7-7-7-7-|
A-2-2-2-2-2-2-2-2-2-2-2-2-2-2-2-2-----5-5-5-5-5-5-5-5-5-5-5-5-5-|
E---------------------------------------------------------------|
And repeat this until the chorus

Chorus:

E--------------------------------------------------|
B--------------------------------------------------|
G------------------------------9-9-9-9-9-9-9-9-9-9-|
D--4-4-4-4-4-4-4-4-4-4-4-4-----9-9-9-9-9-9-9-9-9-9-|
A--4-4-4-4-4-4-4-4-4-4-4-4-----7-7-7-7-7-7-7-7-7-7-|
E--2-2-2-2-2-2-2-2-2-2-2-2-----0-0-0-0-0-0-0-0-0-0-|


E------------------------------------------------------------|
B------------------------------------------------------------|
G------------------------------------------2-----------------|
D--4-4-4-4-4-4-4-4------5----------------------4---2---------|
A--4-4-4-4-4-4-4-4----------5-----2-----0----------------0---|
E--2-2-2-2-2-2-2-2----3-------------3------------------------|

Verse x 1

Chorus x 1

Then this weird little part which goes like this:
F.Y.I This part is quite hard so don't feel crap if u can't play it!

E-2--2--2--2--2-----------------------------------|
B--3--3--3--3--3--3----6----6----6----6----6------|
G---4--4--4--4--4--------5----5----5----5----5----|   Reapeat this part
D--------------------------3----3----3----3-------|         twice
A----------------------5----5----5----5----5------|
E-------------------------------------------------|

I couldn't quite work out the rest of the chords to that part though ):

Then this really cool part

E--------------------------------------------------------------|
B--------------------------------------------------------------|
G---8-8-8----6-6-6----8-8-8----6-6-6----AND SO ON.....---------|
D---8-8-8----6-6-6----8-8-8----6-6-6----AND SO ON.....---------|
A---6-6-6----4-4-4----6-6-6----4-4-4----AND SO ON.....---------|
E--------------------------------------------------------------|

SOLO:

E----------------------------------------------------------------|
B----------------------------------------------------------------|
G----------------------------------------------------------------|
D-----------------------4---2---------------2-------9------10--9-|
A------------------2--4---------4\2--0--4---------7------7-------|
E--9\---2----4--5------------------------------0-------0---------|


E----------------------------------------------------------------|
B------5-~5-----------------5----3--2^--------3p-2h-3p-2---------|
G----~5--~5---------------2--------------2-----------------4---2-|
D----~7---------------4---------------------4--------------------|
A----~7----------------------------------------------------------|
E--0-------------------------------------------------------------|


E----2-----------5-----------------------------------------------|
B------3-----------7----12^^----12-12-12-12-12-------------------|
G--------4-------------------------------------6^-6^-6^-6^-6^-6^-|
D--5--------5/7--------------------------------------------------|
A----------------------------------------------------------------|
E----------------------------------------------------------------|


E----------------------------------------------------------------|
B----------------------14---14---14---14---14---14---14----------|
G-6^-6^-6^-~6----6/14----14---14---14---14---14---14---14--------|
D----------------------------------------------------------------|
A----------------------------------------------------------------|
E----------------------------------------------------------------|

Chorus:

E-----------------|
B-7-7-7-7-7-7-7-7-|
G-----------------|  X 6
D-4-4-4-4-4-4-4-4-|
A-----------------|
E-----------------|


E----------------------------|
B----------------------------|
G-----------------2----------|   X 4
D----4---------------4---2---|
A------5--2-----0------------|
E---3-------3----------------|


Outro:

E------------------------------|
B---4--------------------------|
G---4--------------------------|  And just let that ring/ fade out....
D---4--------------------------|
A---2--------------------------|
E------------------------------|

SWEET! Now u know how to play Order Of The Day by The Living End!
What are u? AWSOME?!
Good on u guys for checkin' out my tab on this song....
IF u have any suggestion, corrections.... or comments.....
then please leave a comment on this tab.... Cheers guys.......

Date: May 29th Monday 1:48PM 2007
Tabbed by: Mucho-mum
Tap to rate this tab
# A B C D E F G H I J K L M N O P Q R S T U V W X Y Z