Song name
# A B C D E F G H I J K L M N O P Q R S T U V W X Y Z

The Locals - Something Im Not Sure On tab

Chords used:

     D   C#m  Bm    A    E   F#m   D#m

e|---5----4----2----5----7----9-----6---|
B|---7----5----3----5----9----10----7---|
G|---7----6----4----6----9----11----8---|
D|---7----6----4----7----9----11----8---|
A|---5----4----2----7----7----9-----6---|
E|------------------5-------------------|

Play the strings as E-A-DGBe (for D, C#m and Bm)and play the last chord (A) as normal.

1.D, C#m, Bm, A
2.D, C#m, Bm, A
3.D, E, F#m, E, D
4.D, C#m, Bm, A (play all of this normal)

e|---5-4-2--------------------|
B|---------5-2-3-5-3-2--------|
G|---------------------4b-4-2-|
D|----------------------------|
A|----------------------------|
E|----------------------------| (x2)

e|---5-2-5-5/7-5-7/9-7-5-7-5-4-|
B|-----------------------------|
G|-----------------------------|
D|-----------------------------|
A|-----------------------------|
E|-----------------------------| (x1)

e|---5-4-2-------------3-----|
B|---------5-2-3-5-3-2-------|
G|---------------------------|
D|---------------------------|
A|---------------------------|
E|---------------------------|

Thats pretty much it, I think

www.myspace.com/thelocalsblackpool
Tap to rate this tab
 
# A B C D E F G H I J K L M N O P Q R S T U V W X Y Z