Song name
# A B C D E F G H I J K L M N O P Q R S T U V W X Y Z

The Locos - Algo Mejor tab

The Locos- Algo Mejor  website: http://www.the-locos.com/
Jaula De Grillos
Tabbed by sabbath70{at]gmail[dot]com


Intro (ska style upstrokes play 4 times each note)
5----8----5----6--|
6----8----6----6--|
5----9----7----7--|
------------------|
------------------|
------------------|

tu solidaridad.....
--------------------------------------|
--------------------------------------|
10---------------------10-------------|
10----10----12----8----10----10----8--|
8-----10----12----8----8-----10----8--|
------8-----10----6----------8-----6--|


juntos compartiremos sueños....
--------------------|
--------------------|
10------------------|
10----12----8----10-|
8-----12----8----10-|
------10----6----8--|

Coda
5---8---5---6--|
6---8---6---6--|
5---9---7---7--|
---------------|
---------------|
---------------|
Tap to rate this tab
# A B C D E F G H I J K L M N O P Q R S T U V W X Y Z