Song name
# A B C D E F G H I J K L M N O P Q R S T U V W X Y Z

The Lone Reapers - The Reaper tab

                               FIRST TAB EVER MADE UP.
-------------------------------------THE REAPER--------------------------------
_______________________________________________________________________________-

                Just pluck basically on each one shown. Or slowly (not too slow) strum 
one down
                Played Best On Electric Guitar with amp. Use most of grind and all of edge
                Standard Tuning. For Best Sound Use Pick.

  E\-----------------------------------------------------------------|
  B/---------10-----10------10-----10-----11-----11-----11-----------|
  G\-------0------0-------0------0------0------0------0--------------|
  D/----12-----12------12-----12-----13-----13-----13----------------|
  A\-----------------------------------------------------------------|
  E/-----------------------------------------------------------------|

  E\-------------------------------------------------------------------|
  B/-------11-----13-----13-----13-----13-----12-----12-----12-----12--|
  G\---- 0------0------0------0------0------0------0------0------0-----|
  D/--13-----15-----15-----15-----15-----14-----14-----14-----14-------|
  A\-------------------------------------------------------------------|
  E/-------------------------------------------------------------------| X6 [do this 
this twice. Then Move on two next lines

                 Do the following below slowly fading out
  E\-----------------------------------------------------------------|
  B/---------10-----10------10-----10-----11-----11-----11-----------|
  G\-------0------0-------0------0------0------0------0--------------|
  D/----12-----12------12-----12-----13-----13-----13----------------|
  A\-----------------------------------------------------------------|
  E/-----------------------------------------------------------------|

  E\------------------------------------------------------------------|
  B/-------11-----13-----13-----13-----13-----12-----12-----12-----12-|
  G\---- 0------0------0------0------0------0------0------0------0----|
  D/--13-----15-----15-----15-----15-----14-----14-----14-----14------|
  A\------------------------------------------------------------------|
  E/------------------------------------------------------------------|
Tap to rate this tab
 
# A B C D E F G H I J K L M N O P Q R S T U V W X Y Z