Song name
# A B C D E F G H I J K L M N O P Q R S T U V W X Y Z

The Lone Reapers - Back From The Dead tab

           -Created and tabbed by Jojo Reaper
   THIS SONG IS DONE USING A ELECTRIC GUITAR, WITH ALOT OF GRIND/GAIN AND FULL EDGE. BUT 
UP THE
   EFFECTS TO GET AWESOME ROCKING SOUNDs.

   GUIDELINES FOR BEGINNERS:
   -------------------------
   * IN THE SECOND SET, THE '33 AND 22 ETC, DOES'NT MEAN FRET 33 OR 22 etc. IT'S JUST SHOWING
   YOU HOW THE SONG IS STRUMMED. THE SAME PRINCIBLE GOES THROUGH THE WHOLE SONG.

   *IN THE THIRD SET, THE 10,10 IS TOGETHER WITH THE 88 AND 99, WHICH IS THE SAME WITH 
THE SONG.

   *PLAY IN ORDER, IT'S A FAST SONG, NO GAPS.
                                                                                         
   7/3
   *WITH THIS SYMBOL / THIS MEANS THAT YOU SLIDE BACK TO THE NUMBER NEXT TO / FOR 
  8/4
   IF THERE ARE ANY TROUBLES, MY MP3 OF THE SONG WILL BE POSTED SHORTLY.                 
   6/2

   FIRST SET:

   E\----------------------------------------------------|
   B/----------------------------------------------------|
   G\----------------------------------------------------|
   D/-------3-----3-----3-----3-----5----5----5----5-----|
   A/-----4-----4-----4-----4-----6----6----6----6-------|
   E/---2-----2-----2-----2-----4----4----4----4---------|

   E\----------------------------------------------------|
   B/----------------------------------------------------|
   G\----------------------------------------------------|
   D/-------7----7----7----7----7----7-----7-----7/3-----|
   A\-----8----8----8----8----8----8-----8-----8/--4-----|
   E/---6----6----6----6----6----6-----6-----6/----2-----|

   SECOND SET:

   E\---------------------------------------------------|
   B/---------------------------------------------------|
   G\---------------------------------------------------|
   D/--3-3--3-3-3--3-3--3-3-3---5-5--5-5-5--5-5--5-5-5--|
   A\--4-4--4-4-4--4-4--4-4-4---6-6--6-6-6--6-6--6-6-6--|
   E/--2-2--2-2-2--2-2--2-2-2---4-4--4-4-4--4-4--4-4-4--|

   E\---------------------------------------------------|
   B/---------------------------------------------------|
   G\---------------------------------------------------|
   D/--7-7--7-7-7--7-7--7-7-7--7-7--7-7-7--7-7--7-7-7/3-|
   A\--8-8--8-8-8--8-8--8-8-8--8-8--8-8-8--8-8--8-8-8/4-|
   E/--6-6--6-6-6--6-6--6-6-6--6-6--6-6-6--6-6--6-6-6/2-|

   THIRD SET, AFTER THE THIRD SET IS PLAYED, PLAY BOTH SECOND AND THIRD AGAIN.

   E\-----------------------------------------------------|
   B/-----------------------------------------------------|
   G\-----------------------------------------------------|
   D/-3-3--3-3-3--3-3--3-3-3----5-5--5-5-5--5-5--5-5-5----|
   A\-4-4--4-4-4--4-4--4-4-4----6-6--6-6-6--6-6--6-6-6----|
   E/-2-2--2-2-2--2-2--2-2-2----4-4--4-4-4--4-4--4-4-4----|

   E\-----------------------------------------------------------------|
   B/-----------------------------------------------------------------|
   G\-----------------------------------------------------------------|
   D/-7-7--7-7-7--7-7--7-7-7----9--9----9--9--9----9--9----9--9--9/3--|
   A\-8-8--8-8-8--8-8--8-8-8----10-10---10-10-10---10-10---10-10-10/4-|
   E/-6-6--6-6-6--6-6--6-6-6----8--8----8--8--8----8--8----8--8--8/2--|

   FOURTH SET, DO THE FOURTH SET 6 TIMES THEN, MOVE ON TO LAST SET

   E\---------------------------------------------|
   B/---------------------------------------------|
   G\---------------------------------------------|
   D/-3-3-3-3--5-5-5-5--7-7-7-7--10-10-10-10/3----|
   A\-4-4-4-4--6-6-6-6--8-8-8-8--11-11-11-11/4----|
   E/-2-2-2-2--4-4-4-4--6-6-6-6--9--9--9--9-/2----|

   E\---------------------------------------------|
   B/---------------------------------------------|
   G\---------------------------------------------|
   D/-3-3-3-3--5-5-5-5--7-7-7-7--9--9--9--9/3-----|
   A\-4-4-4-4--6-6-6-6--8-8-8-8--10-10-10-10/4----|
   E/-2-2-2-2--4-4-4-4--6-6-6-6--8--8--8--8/2-----|

   LAST SET, DO THIS SET MUCH SLOWER, AS AN ENDING

   E\--------------------------------------------|
   B/--------------------------------------------|
   G\--------------------------------------------|
   D/-3-3-3-3--5-5-5-5--7-7-7-7--10-10-10-10/3---|
   A\-4-4-4-4--6-6-6-6--8-8-8-8--11-11-11-11/4---|
   E/-2-2-2-2--4-4-4-4--6-6-6-6--9--9--9--9-/2---|

   E\-----------------------------------------------------|
   B/-----------------------------------------------------|
   G\-----------------------------------------------------|
   D/3-3-3-3--5-5-5-5--7-7-7-7--10-10-10-10--7-7--5-5--2--|
   A\4-4-4-4--6-6-6-6--8-8-8-8--11-11-11-11--8-8--6-6--3--|
   E/2-2-2-2--4-4-4-4--6-6-6-6--9--9--9--9---6-6--4-4--1--|

   END.....

   Well i hope you have enjoyed my tab, easy for beginners, and pretty awesome if you 
it right.

   -Jojo Reaper. P.S: I havn't got the MP3 on my profile just yet, it'll be posted 
ty.
           Again P.S: check my others tab: The Last Heroic Showdown, More songs are 
processed now
Tap to rate this tab
 
# A B C D E F G H I J K L M N O P Q R S T U V W X Y Z