The Lone Reapers - The Last Heroic Showdown tab

    SYMBOLS: V = DOWN ^ = Up / = Slide _ PLAY ON ELECTRIC GUITAR TO SOUND
    AWESOME, with mix up the effects a bit, edge and grind or more.

    E\---------------------------------------------------------|
    B/---------------------------------------------------------|
    G\---13-13-13-13-13-13-13-13----15-15-15-15-15-15-15-15----|
    D/---------------------------------------------------------|
    A\---12-12-12-12-12-12-12-12----14-14-14-14-14-14-14-14----|
    E/---------------------------------------------------------|
                          *_Continue_*

    E\---------------------------------------------------------|
    B/---------------------------------------------------------|
    G\--17-17-17-17-17-17-17-17-17-17-17-17-17-17-17-17--------|
    D/---------------------------------------------------------|
    A\--16-16-16-16-16-16-16-16-16-16-16-16-16-16-16-16--------|
    E/---------------------------------------------------------|
                          *_Continue_*

    E\----------------------------------------------------------|
    B/----------------------------------------------------------|
    G\--17/13--13-13-13-13-13-13-13-13--15-15-15-15-15-15-15-15-|
    D/----------------------------------------------------------|
    A\--16/12--12-12-12-12-12-12-12-12--14-14-14-14-14-14-14-14-|
    E/----------------------------------------------------------|
                          *_Continue_*

    E\---------------------------------------------------------|
    B/---------------------------------------------------------|
    G\--20-20-20-20-20-20-20-20---19-19-19-19-19-19-19-19------|
    D/---------------------------------------------------------|
    A\--19-19-19-19-19-19-19-19---18-18-18-18-18-18-18-18------|
    E/---------------------------------------------------------|
                          *_Continue_*

    E\---------------------------------------------------------|
    B/---------------------------------------------------------|
    G\--13-13-13-13-13-13-13-13---16-16-16-16-16-16-16-16------|
    D/---------------------------------------------------------|
    A\--12-12-12-12-12-12-12-12---15-15-15-15-15-15-15-15------|
    E/---------------------------------------------------------|
                          *_Continue_*

    E\---------------------------------------------------------|
    B/---------------------------------------------------------|
    G\---19-19-19-19-19-19-19-19--17-17-17-17-17-17-17-17------|
    D/---------------------------------------------------------|
    A\---18-18-18-18-18-18-18-18--16-16-16-16-16-16-16-16------|
    E/---------------------------------------------------------|
                        *_LAST SEQUENCE_*

    E\----------------------------------------------------------|
    B/----------------------------------------------------------|
    G\-----13----13----13----13----15----15----15----15---------|
    D/----------------------------------------------------------|
    A\--12----12----12----12----14---14----14----14----14-------|
    E/----------------------------------------------------------|
                        ^ and V   X2=[do twice.
    E\----------------------------------------------------------|
    B/----------------------------------------------------------|
    G\-------19----19----19----19------17----17---17---17-------|
    D/----------------------------------------------------------|
    A\----18----18----18----18------16----16---16---16----------|
    E/----------------------------------------------------------|
Tap to rate this tab
 
# A B C D E F G H I J K L M N O P Q R S T U V W X Y Z