Song name
# A B C D E F G H I J K L M N O P Q R S T U V W X Y Z

The Lonely Forest - Woe Is Me I Am Ruined tab

-------------------------------------------------------------------------------
			     Woe is Me, I am Ruined - the Lonely Forest
-------------------------------------------------------------------------------


Hey Guys. This is definitely my first attempt at making a guitar tab. I sat down for a 
bit yesterday and figured it out when I realized it wasn't online. hopefully I do it correctly.
Below are the Chords used. First the Verse then the Chorus.Please note that this is 
based on the following acoustic version.
http://www.youtube.com/watch?v=mTr26z7OSA0

Tabbed by: M. Courvoisier
Email: SenorGibby@gmail.com
Standard Tuning/ Capo3


VERSE:  (Aadd9) E (F#m7#4)
CHORUS: D (Asus2) E (F#m)
e|-0-0-x-----2-0-0-2--------------------------------|
B|-0-0-0-----3-0-0-2--------------------------------|
G|-6-1-2-----2-2-1-2--------------------------------|
D|-7-2-4-----0-2-2-4--------------------------------|
A|-7-2-4-----x-0-2-4--------------------------------|
E|-5-0-2-----x-x-0-2--------------------------------|

Intro: You basically pick the chords in the order of "E-G-D-A-B"
e|----------------------------------------------------|
B|----0-----0-----0-----0-----0-----0-----0-----0-----|
G|-6-----6-----6-----1-----2-----2-----2-----2--------| [x2]
D|--7-----7-----7-----2-----4-----4-----4-----4-------|
A|---7-----7-----7-----2-----4-----4-----4-----4------|
E|5-----5-----5-----0-----2-----2-----2-----2---------|

Verse 1: Same as the Intro.
e|----------------------------------------------------|
B|----0-----0-----0-----0-----0-----0-----0-----0-----|
G|-6-----6-----6-----1-----2-----2-----2-----2--------| [x4]
D|--7-----7-----7-----2-----4-----4-----4-----4-------|
A|---7-----7-----7-----2-----4-----4-----4-----4------|
E|5-----5-----5-----0-----2-----2-----2-----2---------|
(He gripped my hand like a vice because)

This is a very basic idea of the chorus.. I strongly suggest that you add two 16th notes 
in between chord changes.  This chorus is also very general. Listen to the song for the 
actual pattern (you dont always hit every note) or add your own flare to it!
When I play it, I stick to lowest three strings 'till I hit the line "And they say i'm a 
good guy" where i strum the whole thing.
e|2------0------0------2------|
B|3------0------0------2------|
G|2-(x7)-2-(x7)-1-(x7)-2-(x7)-| [x4]
D|0------2------2------4------|
A|x------0------2------4------|
E|x------x------0------2------|
(And all I can do is make others bleed)

Verse 2: Here you pick the chords "E-G-D-B-G"
The very last F#m7#4 of the fourth repetition is strummed rather than picked
e|----------------------------------------------------------------------------|
B|---0-----0-----0-----0-----0-----0-----0-----0------------------------------|
G|-6--6--6--6--6--6--1--1--2--2--2--2--2--2--2--2-----------------------------| [x4]
D|--7-----7-----7-----2-----4-----4-----4-----4-------------------------------|
A|----------------------------------------------------------------------------|
E|5-----5-----5-----0-----2-----2-----2-----2---------------------------------|
(The worst comes out when I'm alone)

Play Chorus one more time.
e|2------0------0------2------|
B|3------0------0------2------|
G|2-(x7)-2-(x7)-1-(x7)-2-(x7)-| [x4]
D|0------2------2------4------|
A|x------0------2------4------|
E|x------x------0------2------|
(And all I can do is make others bleed)

The Chorus is sung and picked one last time at the very end.
e|---------------------------------------------------------------2----------0--2------|
B|--3----2----0----2----3----2----0----2----3----2----0----2----------2--------2------|
G|---2----2----1----2----2----2----1----2----2----2----1----2-----2----2-----1-2------|
D|-0----2--------------0----2--------------0----2---------------0----2---------4------|
A|0----0-----2----4---0----0-----2----4---0----0-----2----4----0----0-----2----4------|
E|----------0----2--------------0----2--------------0----2---------------0-----2------|
(And all I can do is make others bleed)

That's all. thanks Guys!!
Any fixes or questions, please e-mail me!
-------------------------------------------
~~VERSE I
He gripped my hand like a vice because
I stole her a fox from a wolf
It seems to me one and the same man
We both have fallen short time and time again

~~CHORUS
And all I can do is make others bleed
A prideful ego fire I'm eager to feed
And they say I'm a good guy
And they say I'm a good guy

~~VERSE II
The worst comes out when I'm alone
I think I'm hiding, But you've always known
Can you meet me in that place?
When I'm too ashamed to show my face

~~CHORUS
And all I can do is make others bleed
A prideful ego fire I'm eager to feed   [x2]
And they say I'm a good guy
And they say I'm a good guy
Tap to rate this tab
 
# A B C D E F G H I J K L M N O P Q R S T U V W X Y Z