Song name
# A B C D E F G H I J K L M N O P Q R S T U V W X Y Z

The Lonely Forest - We Sing In Time tab

This is my first tab so hopefully it is correct :)
This song is amazing, hopefully you can learn it.

Chorus

B           F#/A#         C#            D#m
oh in Time the trees die and light will fade

              B                F#m/A#        C#        D#m
But I hope for a new breath, a new life to take me away

   B           F#/A#         C#            D#m
oh in Time the trees die and light will fade

              B                F#m/A#        C#        D#m
But I hope for a new breath, a new life to take me away

C#m

Verse

D#m     F#m/A#m   B         F#
Let us pretend we've got it together.

D#m     F#m/A#m   B      F#
Let us ignore the coming sun.

  D#m   F#m/A#m   B     F#    C#
We'll sing the body electric until machine and soul are one.

D#m     F#m/A#m   B      F#  D#m     F#m/A#m   B      F#
I've see the tweaker struggle syringes lined the floor.

D#m     F#m/A#m   B    F#  C#
A cycle churned to life by dead end jobs and a government's war.

Chorus

B           F#/A#         C#            D#m
oh in Time the trees die and light will fade

              B                F#m/A#        C#        D#m
But I hope for a new breath, a new life to take me away

   B           F#/A#         C#            D#m
oh in Time the trees die and light will fade

              B                F#m/A#        C#        D#m
But I hope for a new breath, a new life to take me away

C#m

Verse 2 is the same as one

Chorus

   B           F#/A#         C#            D#m
oh in Time the trees die and light will fade
              B                F#m/A#        C#        D#m
But I hope for a new breath, a new life to take me away

   B           F#/A#         C#            D#m
oh in Time the trees die and light will fade
              B                F#m/A#        C#        D#m
But I hope for a new breath, a new life to take me away

C#m x3



Solo

E----------------------------------------------|
B----------------------------------------------|
G-----------------6---6-----------------6----8-|
D----9--9--9---9----------9--9--9---9----------|
A----------------------------------------------|
E----------------------------------------------|

E-----------------------------------------------|
B-----------------------------------------------|
G-----------------------------------------------|
D--6--6--6--------------------------------------|
A-----------4--6--8---6-------------------------|
E------------------------6--6---7--7--7--7h9--9-|

E--------------------------------------------------------|
B--------------------------------------------------------|
G--------------------------------------------------------|
D--------------------------------------------------------|
A--------------------------4---4---4---4---6---8--6------|
E---2---2---2---2---4---6---------------------------6--6-|

Chorus x2
Tap to rate this tab
# A B C D E F G H I J K L M N O P Q R S T U V W X Y Z